  0
SECTION
  2
HEADER
  9
$ACADVER
  1
AC1009
  9
$INSBASE
 10
0.0
 20
0.0
 30
0.0
  9
$EXTMIN
 10
-0.0187639192107554
 20
-0.0135919849680022
 30
-0.0000000000000058
  9
$EXTMAX
 10
210.00183362047389
 20
297.01359751731968
 30
0.0000000000000104
  9
$LIMMIN
 10
0.0
 20
0.0
  9
$LIMMAX
 10
410.0
 20
287.0
  9
$ORTHOMODE
 70
     1
  9
$REGENMODE
 70
     1
  9
$FILLMODE
 70
     1
  9
$QTEXTMODE
 70
     0
  9
$MIRRTEXT
 70
     1
  9
$DRAGMODE
 70
     2
  9
$LTSCALE
 40
5.0
  9
$OSMODE
 70
    37
  9
$ATTMODE
 70
     1
  9
$TEXTSIZE
 40
3.5
  9
$TRACEWID
 40
26.0
  9
$TEXTSTYLE
  7
ARIAL
  9
$CLAYER
  8
BEM1
  9
$CELTYPE
  6
BYLAYER
  9
$CECOLOR
 62
   256
  9
$DIMSCALE
 40
0.0
  9
$DIMASZ
 40
3.5
  9
$DIMEXO
 40
1.0
  9
$DIMDLI
 40
8.0
  9
$DIMRND
 40
0.0
  9
$DIMDLE
 40
0.0
  9
$DIMEXE
 40
1.1999999999999991
  9
$DIMTP
 40
0.0
  9
$DIMTM
 40
0.0
  9
$DIMTXT
 40
3.5
  9
$DIMCEN
 40
0.0
  9
$DIMTSZ
 40
0.0
  9
$DIMTOL
 70
     0
  9
$DIMLIM
 70
     0
  9
$DIMTIH
 70
     0
  9
$DIMTOH
 70
     0
  9
$DIMSE1
 70
     0
  9
$DIMSE2
 70
     0
  9
$DIMTAD
 70
     1
  9
$DIMZIN
 70
     0
  9
$DIMBLK
  1

  9
$DIMASO
 70
     0
  9
$DIMSHO
 70
     0
  9
$DIMPOST
  1

  9
$DIMAPOST
  1
"
  9
$DIMALT
 70
     0
  9
$DIMALTD
 70
     3
  9
$DIMALTF
 40
0.039370079
  9
$DIMLFAC
 40
0.5
  9
$DIMTOFL
 70
     0
  9
$DIMTVP
 40
0.0
  9
$DIMTIX
 70
     1
  9
$DIMSOXD
 70
     0
  9
$DIMSAH
 70
     0
  9
$DIMBLK1
  1

  9
$DIMBLK2
  1

  9
$DIMSTYLE
  2
STANDARD
  9
$DIMCLRD
 70
   256
  9
$DIMCLRE
 70
   256
  9
$DIMCLRT
 70
     3
  9
$DIMTFAC
 40
1.0
  9
$DIMGAP
 40
0.15
  9
$LUNITS
 70
     2
  9
$LUPREC
 70
     2
  9
$SKETCHINC
 40
1.0
  9
$FILLETRAD
 40
1.0
  9
$AUNITS
 70
     0
  9
$AUPREC
 70
     2
  9
$MENU
  1
acad
  9
$ELEVATION
 40
0.0
  9
$PELEVATION
 40
0.0
  9
$THICKNESS
 40
0.0
  9
$LIMCHECK
 70
     0
  9
$BLIPMODE
 70
     0
  9
$CHAMFERA
 40
0.2
  9
$CHAMFERB
 40
0.2
  9
$SKPOLY
 70
     0
  9
$TDCREATE
 40
2450034.610675463
  9
$TDUPDATE
 40
2454580.6879616552
  9
$TDINDWG
 40
0.1005015394
  9
$TDUSRTIMER
 40
0.1005015394
  9
$USRTIMER
 70
     1
  9
$ANGBASE
 50
0.0
  9
$ANGDIR
 70
     0
  9
$PDMODE
 70
     0
  9
$PDSIZE
 40
0.0
  9
$PLINEWID
 40
0.0
  9
$COORDS
 70
     2
  9
$SPLFRAME
 70
     0
  9
$SPLINETYPE
 70
     6
  9
$SPLINESEGS
 70
     8
  9
$ATTDIA
 70
     0
  9
$ATTREQ
 70
     1
  9
$HANDLING
 70
     1
  9
$HANDSEED
  5
BAB1
  9
$SURFTAB1
 70
     6
  9
$SURFTAB2
 70
     6
  9
$SURFTYPE
 70
     6
  9
$SURFU
 70
     6
  9
$SURFV
 70
     6
  9
$UCSNAME
  2

  9
$UCSORG
 10
0.0
 20
0.0
 30
0.0
  9
$UCSXDIR
 10
1.0
 20
0.0
 30
0.0
  9
$UCSYDIR
 10
0.0
 20
1.0
 30
0.0
  9
$PUCSNAME
  2

  9
$PUCSORG
 10
0.0
 20
0.0
 30
0.0
  9
$PUCSXDIR
 10
1.0
 20
0.0
 30
0.0
  9
$PUCSYDIR
 10
0.0
 20
1.0
 30
0.0
  9
$USERI1
 70
     0
  9
$USERI2
 70
     0
  9
$USERI3
 70
     0
  9
$USERI4
 70
     0
  9
$USERI5
 70
     0
  9
$USERR1
 40
0.0
  9
$USERR2
 40
0.0
  9
$USERR3
 40
0.0
  9
$USERR4
 40
0.0
  9
$USERR5
 40
0.0
  9
$WORLDVIEW
 70
     1
  9
$SHADEDGE
 70
     3
  9
$SHADEDIF
 70
    70
  9
$TILEMODE
 70
     1
  9
$MAXACTVP
 70
    16
  9
$PLIMCHECK
 70
     0
  9
$PEXTMIN
 10
1.0000000000000000E+020
 20
1.0000000000000000E+020
 30
1.0000000000000000E+020
  9
$PEXTMAX
 10
-1.0000000000000000E+020
 20
-1.0000000000000000E+020
 30
-1.0000000000000000E+020
  9
$PLIMMIN
 10
0.0
 20
0.0
  9
$PLIMMAX
 10
12.0
 20
9.0
  9
$UNITMODE
 70
     0
  9
$VISRETAIN
 70
     0
  9
$PLINEGEN
 70
     0
  9
$PSLTSCALE
 70
     0
  0
ENDSEC
  0
SECTION
  2
TABLES
  0
TABLE
  2
VPORT
 70
     2
  0
VPORT
  2
*ACTIVE
 70
     0
 10
0.0
 20
0.0
 11
1.0
 21
1.0
 12
104.9915348506315
 22
148.50000276617581
 13
0.0
 23
0.0
 14
1.0
 24
1.0
 15
2.0
 25
2.0
 16
0.0
 26
0.0
 36
1.0
 17
0.0
 27
0.0
 37
0.0
 40
298.81830823295479
 41
1.5784708249496979
 42
50.0
 43
0.0
 44
0.0
 50
0.0
 51
0.0
 71
     0
 72
   500
 73
     1
 74
     0
 75
     0
 76
     0
 77
     0
 78
     0
  0
ENDTAB
  0
TABLE
  2
LTYPE
 70
     4
  0
LTYPE
  2
AUSGEZOGEN
 70
     0
  3
Ausgezogene Linie
 72
    65
 73
     0
 40
0.0
  0
LTYPE
  2
CENTER
 70
     0
  3
____ _ ____ _ ____ _ ____ _ ____ _ ____ _ ____
 72
    65
 73
     4
 40
2.0
 49
1.25
 49
-0.25
 49
0.25
 49
-0.25
  0
LTYPE
  2
PUNKT
 70
     0
  3
. . . . . . . . . . . . . . . . . . . . . . . .
 72
    65
 73
     2
 40
0.25
 49
0.0
 49
-0.25
  0
LTYPE
  2
CONTINUOUS
 70
     0
  3
Solid line
 72
    65
 73
     0
 40
0.0
  0
ENDTAB
  0
TABLE
  2
LAYER
 70
     9
  0
LAYER
  2
0
 70
     0
 62
     6
  6
AUSGEZOGEN
  0
LAYER
  2
05
 70
     0
 62
     2
  6
AUSGEZOGEN
  0
LAYER
  2
BEM1
 70
     0
 62
     4
  6
AUSGEZOGEN
  0
LAYER
  2
MITTE
 70
     0
 62
     4
  6
CENTER
  0
LAYER
  2
035
 70
     0
 62
     3
  6
AUSGEZOGEN
  0
LAYER
  2
025
 70
     0
 62
     4
  6
AUSGEZOGEN
  0
LAYER
  2
ASHADE
 70
     0
 62
     7
  6
AUSGEZOGEN
  0
LAYER
  2
RAHMEN
 70
     0
 62
     2
  6
AUSGEZOGEN
  0
LAYER
  2
010
 70
     0
 62
     5
  6
AUSGEZOGEN
  0
ENDTAB
  0
TABLE
  2
STYLE
 70
     4
  0
STYLE
  2
STANDARD
 70
     0
 40
0.0
 41
0.7
 50
15.0
 71
     0
 42
3.5
  3
txt
  4

  0
STYLE
  2
SCRIPTS
 70
     0
 40
0.0
 41
1.0
 50
0.0
 71
     0
 42
5.0
  3
scripts
  4

  0
STYLE
  2
HELV
 70
     0
 40
0.0
 41
0.8
 50
10.0
 71
     0
 42
2.0
  3
HELV.SHX
  4

  0
STYLE
  2
ARIAL
 70
     0
 40
0.0
 41
1.0
 50
0.0
 71
     0
 42
3.5
  3
txt
  4

  0
ENDTAB
  0
TABLE
  2
VIEW
 70
     1
  0
VIEW
  2
OLE1
 70
     0
 40
362.04337985430692
 10
262.08045297997688
 20
181.0216899271534
 41
524.16090595995388
 11
0.0
 21
0.0
 31
1.0
 12
0.0
 22
0.0
 32
0.0
 42
50.0
 43
0.0
 44
0.0
 50
0.0
 71
     0
  0
ENDTAB
  0
TABLE
  2
UCS
 70
     0
  0
ENDTAB
  0
TABLE
  2
APPID
 70
     4
  0
APPID
  2
ACAD
 70
     0
  0
APPID
  2
AVE_RENDER
 70
     0
  0
APPID
  2
ACAD_EXEMPT_FROM_CAD_STANDARDS
 70
     0
  0
APPID
  2
ACAD_PSEXT
 70
     0
  0
ENDTAB
  0
TABLE
  2
DIMSTYLE
 70
     1
  0
DIMSTYLE
  2
STANDARD
 70
     0
  3

  4

  5

  6

  7

 40
1.0
 41
0.18
 42
0.0625
 43
0.38
 44
0.18
 45
0.0
 46
0.0
 47
0.0
 48
0.0
140
0.18
141
0.09
142
0.0
143
25.399999999999999
144
1.0
145
0.0
146
1.0
147
0.09
 71
     0
 72
     0
 73
     1
 74
     1
 75
     0
 76
     0
 77
     0
 78
     0
170
     0
171
     2
172
     0
173
     0
174
     0
175
     0
176
     0
177
     0
178
     0
  0
ENDTAB
  0
ENDSEC
  0
SECTION
  2
BLOCKS
  0
BLOCK
  8
0
  2
$MODEL_SPACE
 70
     0
 10
0.0
 20
0.0
 30
0.0
  3
$MODEL_SPACE
  1

  0
ENDBLK
  5
B5B3
  8
0
  0
BLOCK
 67
     1
  8
0
  2
$PAPER_SPACE
 70
     0
 10
0.0
 20
0.0
 30
0.0
  3
$PAPER_SPACE
  1

  0
ENDBLK
  5
B5B1
 67
     1
  8
0
  0
BLOCK
  8
0
  2
AVE_RENDER
 70
     0
 10
0.0
 20
0.0
 30
0.0
  3
AVE_RENDER
  1
AVE_RENDER
  0
ENDBLK
  5
2F
  8
0
  0
BLOCK
  8
0
  2
NT_1
 70
     0
 10
0.0
 20
0.0
 30
0.0
  3
NT_1
  1

  0
ENDBLK
  5
35
  8
0
  0
BLOCK
  8
0
  2
ZKOPFC
 70
     2
 10
0.0
 20
0.0
 30
0.0
  3
ZKOPFC
  1

  0
ATTDEF
  5
1EAB
  8
0
 62
     4
 10
-13.321428571428569
 20
37.0
 30
0.0
 40
2.5
  1
Dobler
  7
SCRIPTS
 72
     1
 11
-8.5
 21
37.0
 31
0.0
  3
Name des Konstrukteurs ?
  2
NAME
 70
     0
  0
POLYLINE
  5
1EAC
  8
0
 62
     2
 66
     1
 10
0.0
 20
0.0
 30
0.0
  0
VERTEX
  5
B977
  8
0
 62
     2
 10
-51.0
 20
0.0
 30
0.0
  0
VERTEX
  5
B978
  8
0
 62
     2
 10
-51.0
 20
46.0
 30
0.0
  0
SEQEND
  5
B979
  8
0
 62
     2
  0
POLYLINE
  5
1EB0
  8
0
 62
     2
 66
     1
 10
0.0
 20
0.0
 30
0.0
  0
VERTEX
  5
B97A
  8
0
 62
     2
 10
-17.0
 20
9.0
 30
0.0
  0
VERTEX
  5
B97B
  8
0
 62
     2
 10
-17.0
 20
46.0
 30
0.0
  0
SEQEND
  5
B97C
  8
0
 62
     2
  0
POLYLINE
  5
1EB4
  8
0
 62
     2
 66
     1
 10
0.0
 20
0.0
 30
0.0
  0
VERTEX
  5
B97D
  8
0
 62
     2
 10
-32.0
 20
26.0
 30
0.0
  0
VERTEX
  5
B97E
  8
0
 62
     2
 10
-32.0
 20
46.0
 30
0.0
  0
SEQEND
  5
B97F
  8
0
 62
     2
  0
POLYLINE
  5
1EB8
  8
0
 62
     2
 66
     1
 10
0.0
 20
0.0
 30
0.0
  0
VERTEX
  5
B980
  8
0
 62
     2
 10
-133.0
 20
41.0
 30
0.0
  0
VERTEX
  5
B981
  8
0
 62
     2
 10
-92.0
 20
41.0
 30
0.0
  0
SEQEND
  5
B982
  8
0
 62
     2
  0
POLYLINE
  5
1EBC
  8
0
 62
     2
 66
     1
 10
0.0
 20
0.0
 30
0.0
  0
VERTEX
  5
B983
  8
0
 62
     2
 10
-145.0
 20
0.0
 30
0.0
  0
VERTEX
  5
B984
  8
0
 62
     2
 10
-145.0
 20
46.0
 30
0.0
  0
SEQEND
  5
B985
  8
0
 62
     2
  0
POLYLINE
  5
1EC0
  8
0
 62
     2
 66
     1
 10
0.0
 20
0.0
 30
0.0
  0
VERTEX
  5
B986
  8
0
 62
     2
 10
-158.0
 20
0.0
 30
0.0
  0
VERTEX
  5
B987
  8
0
 62
     2
 10
-158.0
 20
46.0
 30
0.0
  0
SEQEND
  5
B988
  8
0
 62
     2
  0
LINE
  5
1EC4
  8
0
 62
     2
 10
-200.0
 20
6.0
 30
0.0
 11
-133.0
 21
6.0
 31
0.0
  0
POLYLINE
  5
1EC5
  8
0
 62
     4
 66
     1
 10
0.0
 20
0.0
 30
0.0
  0
VERTEX
  5
B989
  8
0
 62
     4
 10
-200.0
 20
11.0
 30
0.0
  0
VERTEX
  5
B98A
  8
0
 62
     4
 10
-133.0
 20
11.0
 30
0.0
  0
SEQEND
  5
B98B
  8
0
 62
     4
  0
POLYLINE
  5
1EC9
  8
0
 62
     4
 66
     1
 10
0.0
 20
0.0
 30
0.0
  0
VERTEX
  5
B98C
  8
0
 62
     4
 10
-200.0
 20
16.0
 30
0.0
  0
VERTEX
  5
B98D
  8
0
 62
     4
 10
-133.0
 20
16.0
 30
0.0
  0
SEQEND
  5
B98E
  8
0
 62
     4
  0
POLYLINE
  5
1ECD
  8
0
 62
     4
 66
     1
 10
0.0
 20
0.0
 30
0.0
  0
VERTEX
  5
B98F
  8
0
 62
     4
 10
-200.0
 20
21.0
 30
0.0
  0
VERTEX
  5
B990
  8
0
 62
     4
 10
-133.0
 20
21.0
 30
0.0
  0
SEQEND
  5
B991
  8
0
 62
     4
  0
POLYLINE
  5
1ED1
  8
0
 62
     4
 66
     1
 10
0.0
 20
0.0
 30
0.0
  0
VERTEX
  5
B992
  8
0
 62
     4
 10
-200.0
 20
26.0
 30
0.0
  0
VERTEX
  5
B993
  8
0
 62
     4
 10
-133.0
 20
26.0
 30
0.0
  0
SEQEND
  5
B994
  8
0
 62
     4
  0
POLYLINE
  5
1ED5
  8
0
 62
     4
 66
     1
 10
0.0
 20
0.0
 30
0.0
  0
VERTEX
  5
B995
  8
0
 62
     4
 10
-200.0
 20
31.0
 30
0.0
  0
VERTEX
  5
B996
  8
0
 62
     4
 10
-133.0
 20
31.0
 30
0.0
  0
SEQEND
  5
B997
  8
0
 62
     4
  0
POLYLINE
  5
1ED9
  8
0
 62
     4
 66
     1
 10
0.0
 20
0.0
 30
0.0
  0
VERTEX
  5
B998
  8
0
 62
     4
 10
-200.0
 20
36.0
 30
0.0
  0
VERTEX
  5
B999
  8
0
 62
     4
 10
-133.0
 20
36.0
 30
0.0
  0
SEQEND
  5
B99A
  8
0
 62
     4
  0
POLYLINE
  5
1EDD
  8
0
 62
     4
 66
     1
 10
0.0
 20
0.0
 30
0.0
  0
VERTEX
  5
B99B
  8
0
 62
     4
 10
-200.0
 20
41.0
 30
0.0
  0
VERTEX
  5
B99C
  8
0
 62
     4
 10
-133.0
 20
41.0
 30
0.0
  0
SEQEND
  5
B99D
  8
0
 62
     4
  0
TEXT
  5
1EE1
  8
0
 62
     4
 10
-50.0
 20
6.0
 30
0.0
 40
1.5
  1
Zeichn. Nr.
 51
15.0
  0
TEXT
  5
1EE2
  8
0
 62
     4
 10
-50.0
 20
23.0
 30
0.0
 40
1.5
  1
Ersetzt durch:         Blatt
 51
15.0
  0
TEXT
  5
1EE3
  8
0
 62
     4
 10
-50.0
 20
38.0
 30
0.0
 40
1.5
  1
Gezeichnet
 51
15.0
  0
TEXT
  5
1EE4
  8
0
 62
     4
 10
-50.0
 20
27.0
 30
0.0
 40
1.5
  1
Gesehen
 51
15.0
  0
TEXT
  5
1EE5
  8
0
 62
     4
 10
-31.0
 20
42.0
 30
0.0
 40
1.5
  1
Datum     Name
 51
15.0
  0
TEXT
  5
1EE6
  8
0
 62
     4
 10
-91.0
 20
42.0
 30
0.0
 40
1.5
  1
Werkstoff:      Massstab:
 51
15.0
  0
TEXT
  5
1EE7
  8
0
 62
     4
 10
-132.0
 20
23.0
 30
0.0
 40
1.5
  1
Benennung:
 51
15.0
  0
LINE
  5
1EE8
  8
0
 62
     2
 10
-133.0
 20
33.0
 30
0.0
 11
-92.0
 21
33.0
 31
0.0
  0
TEXT
  5
1EE9
  8
0
 62
     4
 10
-132.0
 20
39.0
 30
0.0
 40
1.5
  1
*)Lieferant darf ohne 
 51
15.0
  0
TEXT
  5
1EEA
  8
0
 62
     4
 10
-132.0
 20
36.5
 30
0.0
 40
1.5
  1
 Ruecksprache nicht 
 51
15.0
  0
TEXT
  5
1EEB
  8
0
 62
     4
 10
-132.0
 20
34.0
 30
0.0
 40
1.5
  1
 geaendert werden
 51
15.0
  0
TEXT
  5
1EEC
  8
0
 62
     4
 10
-132.0
 20
30.0
 30
0.0
 40
1.5
  1
Zeichnung urheberrechtlich
 51
15.0
  0
TEXT
  5
1EED
  8
0
 62
     4
 10
-132.0
 20
27.5
 30
0.0
 40
1.5
  1
geschuetzt (DIN 34) (C)
 51
15.0
  0
TEXT
  5
1EEE
  8
0
 62
     4
 10
-50.0
 20
32.0
 30
0.0
 40
1.5
  1
Geprueft
 51
15.0
  0
TEXT
  5
1EEF
  8
0
 62
     4
 10
-50.0
 20
15.0
 30
0.0
 40
1.5
  1
Ersatz fuer:           von  Blatt
 51
15.0
  0
TEXT
  5
1EF0
  8
0
 62
     4
 10
-197.0
 20
1.0
 30
0.0
 40
1.5
  1
Ind.  Aenderung             Datum    Name
 51
15.0
  0
ATTDEF
  5
1EF1
  8
0
 62
     4
 10
-28.875
 20
37.0
 30
0.0
 40
2.5
  1
01.10.91
 41
0.7
 51
15.0
 72
     1
 11
-24.5
 21
37.0
 31
0.0
  3
Datum der Zeichnung ?
  2
DATE
 70
     0
  0
ATTDEF
  5
1EF2
  8
0
 62
     4
 10
-80.5
 20
36.0
 30
0.0
 40
2.5
  1

 41
0.7
 51
15.0
 72
     1
 11
-80.5
 21
36.0
 31
0.0
  3
Aus welchem Werkstoff ?
  2
WERKSTOFF
 70
     0
  0
ATTDEF
  5
1EF3
  8
0
 62
     2
 10
-92.0
 20
12.5
 30
0.0
 40
5.0
  1

 41
0.7
 51
15.0
 72
     1
 11
-92.0
 21
12.5
 31
0.0
  3
Zeichnungsname ?
  2
BENENNUNG
 70
     0
  0
ATTDEF
  5
1EF4
  8
0
 62
     3
 10
-90.265456601878626
 20
21.082191450526931
 30
0.0
 40
3.5
  1
()
 41
0.7
 51
15.0
 72
     1
 11
-89.040456601878617
 21
21.082191450526931
 31
0.0
  3
Zu welchem Produkt ?
  2
TEIL
 70
     0
  0
ATTDEF
  5
1EF5
  8
0
 62
     3
 10
-20.550219082576412
 20
1.9765410165377939
 30
0.0
 40
3.5
  1

 41
0.7
 51
15.0
 72
     1
 11
-20.550219082576412
 21
1.9765410165377939
 31
0.0
  3
Zeichnungsnummer ?
  2
NUMMER
 70
     0
  0
ATTDEF
  5
1EF6
  8
0
 62
     2
 10
-63.482671637476102
 20
34.656056232934532
 30
0.0
 40
5.0
  1
5:1
 41
0.7
 51
15.0
 72
     1
 11
-60.566004970809438
 21
34.656056232934532
 31
0.0
  3
Hauptmassstab:
  2
MASS
 70
     0
  0
ATTDEF
  5
1EF7
  8
0
 62
     3
 10
-60.480700945980033
 20
28.210450539175302
 30
0.0
 40
3.5
  1

 41
0.7
 51
15.0
 72
     1
 11
-60.480700945980033
 21
28.210450539175302
 31
0.0
  3
Nebenmassstab:
  2
MASS2
 70
     0
  0
ATTDEF
  5
1EF8
  8
0
 62
     4
 10
-81.0
 20
29.0
 30
0.0
 40
2.5
  1

 41
0.7
 51
15.0
 72
     1
 11
-81.0
 21
29.0
 31
0.0
  3
Werkstoffzusatz:
  2
TEIL
 70
     0
  0
ATTDEF
  5
1EF9
  8
0
 62
     3
 10
-107.7114519405618
 20
59.004318747429437
 30
0.0
 40
3.5
  1
Freimasstoleranzen %%p0.1
 41
0.7
 51
15.0
  3
Freimasstoleranzen:
  2
TOL
 70
     0
  0
ATTDEF
  5
1EFA
  8
0
 62
     3
 10
-107.7114519405618
 20
54.004318747429437
 30
0.0
 40
3.5
  1
nicht bemasste Radien R=0.2
 41
0.7
 51
15.0
  3
Nicht bemasste Radien:
  2
RADIEN
 70
     0
  0
ATTDEF
  5
1EFB
  8
0
 62
     3
 10
-107.7114519405618
 20
49.004318747429437
 30
0.0
 40
3.5
  1
nicht bemasste Facetten 0.5 x 45%%D
 41
0.7
 51
15.0
  3
nicht bemasste Facetten:
  2
FACETTE
 70
     0
  0
POLYLINE
  5
1EFC
  8
0
 62
     2
 66
     1
 10
0.0
 20
0.0
 30
0.0
  0
VERTEX
  5
B99E
  8
0
 62
     2
 10
-191.0
 20
0.0
 30
0.0
  0
VERTEX
  5
B99F
  8
0
 62
     2
 10
-191.0
 20
46.0
 30
0.0
  0
SEQEND
  5
B9A0
  8
0
 62
     2
  0
POLYLINE
  5
1F00
  8
0
 62
     2
 66
     1
 10
0.0
 20
0.0
 30
0.0
  0
VERTEX
  5
B9A1
  8
0
 62
     2
 10
-133.0
 20
0.0
 30
0.0
  0
VERTEX
  5
B9A2
  8
0
 62
     2
 10
-133.0
 20
46.0
 30
0.0
  0
SEQEND
  5
B9A3
  8
0
 62
     2
  0
POLYLINE
  5
1F04
  8
0
 62
     2
 66
     1
 10
0.0
 20
0.0
 30
0.0
  0
VERTEX
  5
B9A4
  8
0
 62
     2
 10
-92.0
 20
26.0
 30
0.0
  0
VERTEX
  5
B9A5
  8
0
 62
     2
 10
-92.0
 20
46.0
 30
0.0
  0
SEQEND
  5
B9A6
  8
0
 62
     2
  0
POLYLINE
  5
1F08
  8
0
 62
     2
 66
     1
 10
0.0
 20
0.0
 30
0.0
  0
VERTEX
  5
B9A7
  8
0
 62
     2
 10
-69.0
 20
26.0
 30
0.0
  0
VERTEX
  5
B9A8
  8
0
 62
     2
 10
-69.0
 20
46.0
 30
0.0
  0
SEQEND
  5
B9A9
  8
0
 62
     2
  0
ATTDEF
  5
1F0C
  8
0
 62
     4
 10
-197.1862672583826
 20
7.0
 30
0.0
 40
2.5
  1

 41
0.7
 51
15.0
  3
Index1:
  2
INDEX1
 70
     0
  0
ATTDEF
  5
1F0D
  8
0
 62
     4
 10
-190.34874260355031
 20
7.0
 30
0.0
 40
2.5
  1

 41
0.7
 51
15.0
  3
Aenderung1:
  2
A1
 70
     0
  0
ATTDEF
  5
1F0E
  8
0
 62
     4
 10
-157.34874260355031
 20
7.0
 30
0.0
 40
2.5
  1

 41
0.7
 51
15.0
  3
Datum1:
  2
DATUM1
 70
     0
  0
ATTDEF
  5
1F0F
  8
0
 62
     4
 10
-144.46499013806701
 20
7.0
 30
0.0
 40
2.5
  1

 41
0.7
 51
15.0
  3
Name1:
  2
NAME1
 70
     0
  0
ATTDEF
  5
1F10
  8
0
 62
     4
 10
-197.1862672583826
 20
12.0
 30
0.0
 40
2.5
  1

 41
0.7
 51
15.0
  3
Index2:
  2
INDEX2
 70
     0
  0
ATTDEF
  5
1F11
  8
0
 62
     4
 10
-190.34874260355031
 20
12.0
 30
0.0
 40
2.5
  1

 41
0.7
 51
15.0
  3
Aenderung2:
  2
A2
 70
     0
  0
ATTDEF
  5
1F12
  8
0
 62
     4
 10
-157.34874260355031
 20
12.0
 30
0.0
 40
2.5
  1

 41
0.7
 51
15.0
  3
Datum2:
  2
DATUM2
 70
     0
  0
ATTDEF
  5
1F13
  8
0
 62
     4
 10
-144.46499013806701
 20
12.0
 30
0.0
 40
2.5
  1

 41
0.7
 51
15.0
  3
Name2
  2
NAME2
 70
     0
  0
ATTDEF
  5
1F14
  8
0
 62
     4
 10
-197.1862672583826
 20
17.0
 30
0.0
 40
2.5
  1

 41
0.7
 51
15.0
  3
Index3:
  2
INDEX3
 70
     0
  0
ATTDEF
  5
1F15
  8
0
 62
     4
 10
-190.34874260355031
 20
17.0
 30
0.0
 40
2.5
  1

 41
0.7
 51
15.0
  3
Aenderung3
  2
A3
 70
     0
  0
ATTDEF
  5
1F16
  8
0
 62
     4
 10
-157.34874260355031
 20
17.0
 30
0.0
 40
2.5
  1

 41
0.7
 51
15.0
  3
Datum3:
  2
DATUM3
 70
     0
  0
ATTDEF
  5
1F17
  8
0
 62
     4
 10
-144.46499013806701
 20
17.0
 30
0.0
 40
2.5
  1

 41
0.7
 51
15.0
  3
Name3:
  2
NAME3
 70
     0
  0
ATTDEF
  5
1F18
  8
0
 62
     4
 10
-197.1862672583826
 20
22.0
 30
0.0
 40
2.5
  1

 41
0.7
 51
15.0
  3
Index4:
  2
INDEX4
 70
     0
  0
ATTDEF
  5
1F19
  8
0
 62
     4
 10
-190.34874260355031
 20
22.0
 30
0.0
 40
2.5
  1

 41
0.7
 51
15.0
  3
Aenderung4:
  2
A4
 70
     0
  0
ATTDEF
  5
1F1A
  8
0
 62
     4
 10
-157.34874260355031
 20
22.0
 30
0.0
 40
2.5
  1

 41
0.7
 51
15.0
  3
Datum4:
  2
DATUM4
 70
     0
  0
ATTDEF
  5
1F1B
  8
0
 62
     4
 10
-144.46499013806701
 20
22.0
 30
0.0
 40
2.5
  1

 41
0.7
 51
15.0
  3
Name4:
  2
NAME4
 70
     0
  0
ATTDEF
  5
1F1C
  8
0
 62
     4
 10
-197.1862672583826
 20
27.0
 30
0.0
 40
2.5
  1

 41
0.7
 51
15.0
  3
Index5:
  2
INDEX5
 70
     0
  0
ATTDEF
  5
1F1D
  8
0
 62
     4
 10
-190.34874260355031
 20
27.0
 30
0.0
 40
2.5
  1

 41
0.7
 51
15.0
  3
Aenderung5:
  2
A5
 70
     0
  0
ATTDEF
  5
1F1E
  8
0
 62
     4
 10
-157.34874260355031
 20
27.0
 30
0.0
 40
2.5
  1

 41
0.7
 51
15.0
  3
Datum5:
  2
DATUM5
 70
     0
  0
ATTDEF
  5
1F1F
  8
0
 62
     4
 10
-144.46499013806701
 20
27.0
 30
0.0
 40
2.5
  1

 41
0.7
 51
15.0
  3
Name5
  2
NAME5
 70
     0
  0
ATTDEF
  5
1F20
  8
0
 62
     4
 10
-197.1862672583826
 20
32.0
 30
0.0
 40
2.5
  1

 41
0.7
 51
15.0
  3
Index6:
  2
INDEX6
 70
     0
  0
ATTDEF
  5
1F21
  8
0
 62
     4
 10
-190.34874260355031
 20
32.0
 30
0.0
 40
2.5
  1

 41
0.7
 51
15.0
  3
Aenderung6:
  2
A6
 70
     0
  0
ATTDEF
  5
1F22
  8
0
 62
     4
 10
-157.34874260355031
 20
32.0
 30
0.0
 40
2.5
  1

 41
0.7
 51
15.0
  3
Datum6:
  2
DATUM6
 70
     0
  0
ATTDEF
  5
1F23
  8
0
 62
     4
 10
-144.46499013806701
 20
32.0
 30
0.0
 40
2.5
  1

 41
0.7
 51
15.0
  3
Name6:
  2
NAME6
 70
     0
  0
ATTDEF
  5
1F24
  8
0
 62
     4
 10
-197.1862672583826
 20
37.0
 30
0.0
 40
2.5
  1

 41
0.7
 51
15.0
  3
Index7:
  2
INDEX7
 70
     0
  0
ATTDEF
  5
1F25
  8
0
 62
     4
 10
-190.34874260355031
 20
37.0
 30
0.0
 40
2.5
  1

 41
0.7
 51
15.0
  3
Aenderung7:
  2
A7
 70
     0
  0
ATTDEF
  5
1F26
  8
0
 62
     4
 10
-157.34874260355031
 20
37.0
 30
0.0
 40
2.5
  1

 41
0.7
 51
15.0
  3
Datum7:
  2
DATUM7
 70
     0
  0
ATTDEF
  5
1F27
  8
0
 62
     4
 10
-144.46499013806701
 20
37.0
 30
0.0
 40
2.5
  1

 41
0.7
 51
15.0
  3
Name7:
  2
NAME7
 70
     0
  0
ATTDEF
  5
1F28
  8
0
 62
     4
 10
-197.1862672583826
 20
42.0
 30
0.0
 40
2.5
  1

 41
0.7
 51
15.0
  3
Index8:
  2
INDEX8
 70
     0
  0
ATTDEF
  5
1F29
  8
0
 62
     4
 10
-190.34874260355031
 20
42.0
 30
0.0
 40
2.5
  1

 41
0.7
 51
15.0
  3
Aenderung8:
  2
A8
 70
     0
  0
ATTDEF
  5
1F2A
  8
0
 62
     4
 10
-157.34874260355031
 20
42.0
 30
0.0
 40
2.5
  1

 41
0.7
 51
15.0
  3
Datum8:
  2
DATUM8
 70
     0
  0
ATTDEF
  5
1F2B
  8
0
 62
     4
 10
-144.46499013806701
 20
42.0
 30
0.0
 40
2.5
  1

 41
0.7
 51
15.0
  3
Name8:
  2
NAME8
 70
     0
  0
POLYLINE
  5
1F2C
  8
0
 62
     2
 66
     1
 10
0.0
 20
0.0
 30
0.0
  0
VERTEX
  5
B9AA
  8
0
 62
     2
 10
0.0
 20
0.0
 30
0.0
  0
VERTEX
  5
B9AB
  8
0
 62
     2
 10
0.0
 20
46.0
 30
0.0
  0
SEQEND
  5
B9AC
  8
0
 62
     2
  0
POLYLINE
  5
1F30
  8
0
 62
     2
 66
     1
 10
0.0
 20
0.0
 30
0.0
  0
VERTEX
  5
B9AD
  8
0
 62
     2
 10
-200.0
 20
46.0
 30
0.0
  0
VERTEX
  5
B9AE
  8
0
 62
     2
 10
-200.0
 20
0.0
 30
0.0
  0
SEQEND
  5
B9AF
  8
0
 62
     2
  0
POLYLINE
  5
1F34
  8
0
 62
     2
 66
     1
 10
0.0
 20
0.0
 30
0.0
  0
VERTEX
  5
B9B0
  8
0
 62
     2
 10
0.0
 20
9.0
 30
0.0
  0
VERTEX
  5
B9B1
  8
0
 62
     2
 10
-133.0
 20
9.0
 30
0.0
  0
SEQEND
  5
B9B2
  8
0
 62
     2
  0
POLYLINE
  5
1F38
  8
0
 62
     2
 66
     1
 10
0.0
 20
0.0
 30
0.0
  0
VERTEX
  5
B9B3
  8
0
 62
     2
 10
0.0
 20
18.0
 30
0.0
  0
VERTEX
  5
B9B4
  8
0
 62
     2
 10
-51.0
 20
18.0
 30
0.0
  0
SEQEND
  5
B9B5
  8
0
 62
     2
  0
POLYLINE
  5
1F3C
  8
0
 62
     2
 66
     1
 10
0.0
 20
0.0
 30
0.0
  0
VERTEX
  5
B9B6
  8
0
 62
     2
 10
0.0
 20
26.0
 30
0.0
  0
VERTEX
  5
B9B7
  8
0
 62
     2
 10
-133.0
 20
26.0
 30
0.0
  0
SEQEND
  5
B9B8
  8
0
 62
     2
  0
POLYLINE
  5
1F40
  8
0
 62
     2
 66
     1
 10
0.0
 20
0.0
 30
0.0
  0
VERTEX
  5
B9B9
  8
0
 62
     2
 10
0.0
 20
31.0
 30
0.0
  0
VERTEX
  5
B9BA
  8
0
 62
     2
 10
-51.0
 20
31.0
 30
0.0
  0
SEQEND
  5
B9BB
  8
0
 62
     2
  0
POLYLINE
  5
1F44
  8
0
 62
     2
 66
     1
 10
0.0
 20
0.0
 30
0.0
  0
VERTEX
  5
B9BC
  8
0
 62
     2
 10
0.0
 20
36.0
 30
0.0
  0
VERTEX
  5
B9BD
  8
0
 62
     2
 10
-51.0
 20
36.0
 30
0.0
  0
SEQEND
  5
B9BE
  8
0
 62
     2
  0
POLYLINE
  5
1F48
  8
0
 62
     2
 66
     1
 10
0.0
 20
0.0
 30
0.0
  0
VERTEX
  5
B9BF
  8
0
 62
     2
 10
0.0
 20
41.0
 30
0.0
  0
VERTEX
  5
B9C0
  8
0
 62
     2
 10
-51.0
 20
41.0
 30
0.0
  0
SEQEND
  5
B9C1
  8
0
 62
     2
  0
POLYLINE
  5
1F4C
  8
0
 62
     2
 66
     1
 10
0.0
 20
0.0
 30
0.0
  0
VERTEX
  5
B9C2
  8
0
 62
     2
 10
0.0
 20
46.0
 30
0.0
  0
VERTEX
  5
B9C3
  8
0
 62
     2
 10
-200.0
 20
46.0
 30
0.0
  0
SEQEND
  5
B9C4
  8
0
 62
     2
  0
TEXT
  5
1F50
  8
035
 10
517.65315784783218
 20
512.84858999021753
 30
0.0
 40
3.5
  1
  
 41
0.7
 51
15.0
  0
LINE
  5
1F51
  8
035
 10
-128.75556832048619
 20
3.2089522248458731
 30
0.0
 11
-126.70616955508621
 21
3.2089522248458731
 31
0.0
  0
LINE
  5
1F52
  8
035
 10
-128.094709021699
 20
6.1898958836096174
 30
0.0
 11
-125.67269229895351
 21
6.1898958836096174
 31
0.0
  0
LINE
  5
1F53
  8
035
 10
-128.75556832048619
 20
3.2089522248458731
 30
0.0
 11
-128.094709021699
 21
6.1898958836096174
 31
0.0
  0
LINE
  5
1F54
  8
035
 10
-126.70616955508621
 20
3.2089522248458731
 30
0.0
 11
-126.33443619951839
 21
4.8857330329004274
 31
0.0
  0
LINE
  5
1F55
  8
035
 10
-122.1415995776042
 20
3.2089522248458731
 30
0.0
 11
-121.480740278817
 21
6.1898958836096174
 31
0.0
  0
LINE
  5
1F56
  8
035
 10
-123.8192649874365
 20
4.8857330329004611
 30
0.0
 11
-123.53013904421699
 21
6.1898958836096174
 31
0.0
  0
LINE
  5
1F57
  8
035
 10
-126.33443619951839
 20
4.8857330329004611
 30
0.0
 11
-124.47046181101339
 21
3.2089522248458731
 31
0.0
  0
LINE
  5
1F58
  8
035
 10
-125.67269229895351
 20
6.1898958836096174
 30
0.0
 11
-123.8192649874365
 21
4.8857330329004611
 31
0.0
  0
LINE
  5
1F59
  8
035
 10
-123.53013904421699
 20
6.1898958836096174
 30
0.0
 11
-121.480740278817
 21
6.1898958836096174
 31
0.0
  0
LINE
  5
1F5A
  8
035
 10
-124.47046181101339
 20
3.2089522248458731
 30
0.0
 11
-122.1415995776042
 21
3.2089522248458731
 31
0.0
  0
LINE
  5
1F5B
  8
035
 10
-121.1169001949041
 20
3.2089522248458731
 30
0.0
 11
-120.4560408961169
 21
6.1898958836096174
 31
0.0
  0
LINE
  5
1F5C
  8
035
 10
-118.9504523853178
 20
3.736926343802164
 30
0.0
 11
-118.77564378256569
 21
4.5254369947496018
 31
0.0
  0
LINE
  5
1F5D
  8
035
 10
-115.5152366557929
 20
4.5254369947496018
 30
0.0
 11
-115.4380926508824
 21
4.8734111137059379
 31
0.0
  0
LINE
  5
1F5E
  8
035
 10
-115.5276308347222
 20
3.2089522248458731
 30
0.0
 11
-115.410581790536
 21
3.736926343802164
 31
0.0
  0
LINE
  5
1F5F
  8
035
 10
-121.1169001949041
 20
3.2089522248458731
 30
0.0
 11
-115.5276308347222
 21
3.2089522248458731
 31
0.0
  0
LINE
  5
1F60
  8
035
 10
-120.4560408961169
 20
6.1898958836096174
 30
0.0
 11
-114.8667715359349
 21
6.1898958836096174
 31
0.0
  0
LINE
  5
1F61
  8
035
 10
-118.6984997776553
 20
4.8734111137059379
 30
0.0
 11
-118.52369117490301
 21
5.6619217646532061
 31
0.0
  0
LINE
  5
1F62
  8
035
 10
-114.9838205801212
 20
5.6619217646532229
 30
0.0
 11
-114.8667715359349
 21
6.1898958836096174
 31
0.0
  0
LINE
  5
1F63
  8
035
 10
-114.39422102995231
 20
4.1195059973169093
 30
0.0
 11
-113.93522664257119
 21
6.1898958836096174
 31
0.0
  0
LINE
  5
1F64
  8
035
 10
-112.2931360945968
 20
4.3759284459971211
 30
0.0
 11
-111.8909891954701
 21
6.1898958836096174
 31
0.0
  0
LINE
  5
1F65
  8
035
 10
-110.0519479814474
 20
4.2792745494674778
 30
0.0
 11
-109.62837342933619
 21
6.1898958836096174
 31
0.0
  0
LINE
  5
1F66
  8
035
 10
-108.0752437571043
 20
3.9747288889998709
 30
0.0
 11
-107.5841530575365
 21
6.1898958836096174
 31
0.0
  0
LINE
  5
1F67
  8
035
 10
-113.93522664257119
 20
6.1898958836096174
 30
0.0
 11
-111.8909891954701
 21
6.1898958836096174
 31
0.0
  0
POLYLINE
  5
1F68
  8
035
 66
     1
 10
0.0
 20
0.0
 30
0.0
  0
VERTEX
  5
B9C5
  8
035
 10
-114.39422102995211
 20
4.1195059973169093
 30
0.0
 42
0.0533041479355404
  0
VERTEX
  5
B9C6
  8
035
 10
-114.40193616494869
 20
4.0473426288731407
 30
0.0
 42
0.2429550060825716
  0
SEQEND
  5
B9C7
  8
035
  0
POLYLINE
  5
1F6C
  8
035
 66
     1
 10
0.0
 20
0.0
 30
0.0
  0
VERTEX
  5
B9C8
  8
035
 10
-114.40193616494869
 20
4.0473426288731407
 30
0.0
 42
0.2429550060825716
  0
VERTEX
  5
B9C9
  8
035
 10
-114.2582140839238
 20
3.76902241533011
 30
0.0
 42
0.0830391319818528
  0
VERTEX
  5
B9CA
  8
035
 10
-113.47426934517441
 20
3.3886409177960242
 30
0.0
 42
0.0412286692587949
  0
VERTEX
  5
B9CB
  8
035
 10
-112.53523592918479
 20
3.1947274822628482
 30
0.0
 42
0.0303168106148105
  0
VERTEX
  5
B9CC
  8
035
 10
-111.2346835275122
 20
3.115797735509434
 30
0.0
 42
0.0303168106148056
  0
VERTEX
  5
B9CD
  8
035
 10
-109.9341311258396
 20
3.1947274822628482
 30
0.0
 42
0.0412286692587985
  0
VERTEX
  5
B9CE
  8
035
 10
-108.99509770985
 20
3.3886409177960242
 30
0.0
 42
0.0830391319818556
  0
VERTEX
  5
B9CF
  8
035
 10
-108.2111529711005
 20
3.76902241533011
 30
0.0
 42
0.1868768484129985
  0
VERTEX
  5
B9D0
  8
035
 10
-108.0752437571044
 20
3.9747288889998709
 30
0.0
 42
0.2429550060826199
  0
SEQEND
  5
B9D1
  8
035
  0
POLYLINE
  5
1F77
  8
035
 66
     1
 10
0.0
 20
0.0
 30
0.0
  0
VERTEX
  5
B9D2
  8
035
 10
-112.2988649389131
 20
4.3268060968822528
 30
0.0
 42
0.1991045112703633
  0
VERTEX
  5
B9D3
  8
035
 10
-112.2362306163629
 20
4.1757514211997337
 30
0.0
 42
0.0984366758760737
  0
VERTEX
  5
B9D4
  8
035
 10
-111.9690267473226
 20
3.9974552413436268
 30
0.0
 42
0.0556835448182592
  0
VERTEX
  5
B9D5
  8
035
 10
-111.63143976912821
 20
3.9000426884620101
 30
0.0
 42
0.0424435076919051
  0
VERTEX
  5
B9D6
  8
035
 10
-111.172726911796
 20
3.8610336502004512
 30
0.0
 42
0.0424435076918822
  0
VERTEX
  5
B9D7
  8
035
 10
-110.7140140544636
 20
3.9000426884619421
 30
0.0
 42
0.0556835448182298
  0
VERTEX
  5
B9D8
  8
035
 10
-110.3764270762692
 20
3.9974552413436268
 30
0.0
 42
0.0984366758760371
  0
VERTEX
  5
B9D9
  8
035
 10
-110.10922320722899
 20
4.1757514211996316
 30
0.0
 42
0.1413271427614488
  0
VERTEX
  5
B9DA
  8
035
 10
-110.0519479814474
 20
4.2792745494674778
 30
0.0
 42
0.1991045112703793
  0
SEQEND
  5
B9DB
  8
035
  0
POLYLINE
  5
1F82
  8
035
 66
     1
 10
0.0
 20
0.0
 30
0.0
  0
VERTEX
  5
B9DC
  8
035
 10
-112.2931360945968
 20
4.3759284459971211
 30
0.0
 42
0.0581150540440913
  0
VERTEX
  5
B9DD
  8
035
 10
-112.2988649389131
 20
4.3268060968822528
 30
0.0
 42
0.1991045112703633
  0
SEQEND
  5
B9DE
  8
035
  0
LINE
  5
1F86
  8
035
 10
-109.62837342933619
 20
6.1898958836096174
 30
0.0
 11
-107.5841530575366
 21
6.1898958836096174
 31
0.0
  0
LINE
  5
1F87
  8
035
 10
-107.20700925637691
 20
5.444659968918617
 30
0.0
 11
-107.0417944316801
 21
6.1898958836096174
 31
0.0
  0
LINE
  5
1F88
  8
035
 10
-105.83956394374
 20
3.2089522248458731
 30
0.0
 11
-105.34391946964951
 21
5.444659968918617
 31
0.0
  0
LINE
  5
1F89
  8
035
 10
-103.79016517834
 20
3.2089522248458731
 30
0.0
 11
-103.29452070424939
 21
5.444659968918617
 31
0.0
  0
LINE
  5
1F8A
  8
035
 10
-101.33827642818569
 20
5.444659968918617
 30
0.0
 11
-101.173061603489
 21
6.1898958836096174
 31
0.0
  0
LINE
  5
1F8B
  8
035
 10
-107.20700925637691
 20
5.444659968918617
 30
0.0
 11
-105.34391946964951
 21
5.444659968918617
 31
0.0
  0
LINE
  5
1F8C
  8
035
 10
-105.83956394374
 20
3.2089522248458731
 30
0.0
 11
-103.79016517834
 21
3.2089522248458731
 31
0.0
  0
LINE
  5
1F8D
  8
035
 10
-107.0417944316801
 20
6.1898958836096174
 30
0.0
 11
-101.173061603489
 21
6.1898958836096174
 31
0.0
  0
LINE
  5
1F8E
  8
035
 10
-103.29452070424939
 20
5.444659968918617
 30
0.0
 11
-101.33827642818569
 21
5.444659968918617
 31
0.0
  0
LINE
  5
1F8F
  8
035
 10
-101.1818394769216
 20
3.2089522248458051
 30
0.0
 11
-100.52098017813439
 21
6.189895883609565
 31
0.0
  0
LINE
  5
1F90
  8
035
 10
-99.132440711521582
 20
3.2089522248458051
 30
0.0
 11
-98.886017141374879
 21
4.3204971182094676
 31
0.0
  0
LINE
  5
1F91
  8
035
 10
-101.1818394769216
 20
3.2089522248458051
 30
0.0
 11
-99.132440711521582
 21
3.2089522248458051
 31
0.0
  0
LINE
  5
1F92
  8
035
 10
-100.52098017813439
 20
6.1898958836096174
 30
0.0
 11
-95.290928624759346
 21
6.1898958836096174
 31
0.0
  0
LINE
  5
1F93
  8
035
 10
-94.918674734898246
 20
3.5209063363026778
 30
0.0
 11
-94.870132257751479
 21
4.2150961012516648
 31
0.0
  0
LINE
  5
1F94
  8
035
 10
-96.973279920251144
 20
3.446451062164297
 30
0.0
 11
-96.935760818494984
 21
3.9925148410080471
 31
0.0
  0
LINE
  5
1F95
  8
035
 10
-98.808873136464385
 20
4.6684712371658197
 30
0.0
 11
-98.588630456920498
 21
5.6619217646532061
 31
0.0
  0
ARC
  5
1F96
  8
035
 10
-94.454036886486776
 20
3.4884156928548999
 30
0.0
 40
0.4657724466818367
 50
175.99999999999881
 51
216.8698976458987
  0
ARC
  5
1F97
  8
035
 10
-96.524731588143297
 20
3.4524951785273088
 30
0.0
 40
0.4485890520078757
 50
180.77200466132189
 51
212.88187534886279
  0
LINE
  5
1F98
  8
035
 10
-96.901452927192295
 20
3.2089522248458051
 30
0.0
 11
-94.826654843831534
 21
3.2089522248458051
 31
0.0
  0
POLYLINE
  5
1F99
  8
035
 66
     1
 10
0.0
 20
0.0
 30
0.0
  0
VERTEX
  5
B9DF
  8
035
 10
-94.870132257750413
 20
4.2150961012515626
 30
0.0
 42
0.0848312786284099
  0
VERTEX
  5
B9E0
  8
035
 10
-94.880776466524537
 20
4.3297877881289271
 30
0.0
 42
0.1530484383254131
  0
VERTEX
  5
B9E1
  8
035
 10
-94.990370323852645
 20
4.502459983347026
 30
0.0
 42
0.0253150863346336
  0
VERTEX
  5
B9E2
  8
035
 10
-95.04547907006534
 20
4.5444320109185954
 30
0.0
 42
0.0679481782030558
  0
SEQEND
  5
B9E3
  8
035
  0
POLYLINE
  5
1F9F
  8
035
 66
     1
 10
0.0
 20
0.0
 30
0.0
  0
VERTEX
  5
B9E4
  8
035
 10
-95.04547907006534
 20
4.5444320109185954
 30
0.0
 42
0.0153688240491597
  0
VERTEX
  5
B9E5
  8
035
 10
-94.909079219236318
 20
4.6142399160250331
 30
0.0
 42
0.0739810726103034
  0
VERTEX
  5
B9E6
  8
035
 10
-94.516614304132929
 20
4.9135000826235373
 30
0.0
 42
0.1068944749256624
  0
VERTEX
  5
B9E7
  8
035
 10
-94.271190998582497
 20
5.3061237676075068
 30
0.0
 42
0.1530484383253946
  0
VERTEX
  5
B9E8
  8
035
 10
-94.257471051485311
 20
5.6330604656076471
 30
0.0
 42
0.1530484383254131
  0
VERTEX
  5
B9E9
  8
035
 10
-94.432821223210169
 20
5.9093359779565686
 30
0.0
 42
0.1068944749256794
  0
VERTEX
  5
B9EA
  8
035
 10
-94.841675882989591
 20
6.126646410505006
 30
0.0
 42
0.0679481782030558
  0
VERTEX
  5
B9EB
  8
035
 10
-95.290928624759346
 20
6.1898958836113041
 30
0.0
 42
0.0605663674549872
  0
SEQEND
  5
B9EC
  8
035
  0
LINE
  5
1FA9
  8
035
 10
-93.915789308684992
 20
3.2089522248458051
 30
0.0
 11
-93.254930009897706
 21
6.189895883609565
 31
0.0
  0
LINE
  5
1FAA
  8
035
 10
-91.86639054328495
 20
3.2089522248458051
 30
0.0
 11
-91.205531244497678
 21
6.189895883609565
 31
0.0
  0
LINE
  5
1FAB
  8
035
 10
-93.915789308684992
 20
3.2089522248458051
 30
0.0
 11
-91.86639054328495
 21
3.2089522248458051
 31
0.0
  0
LINE
  5
1FAC
  8
035
 10
-93.254930009897706
 20
6.189895883609565
 30
0.0
 11
-91.205531244497678
 21
6.189895883609565
 31
0.0
  0
LINE
  5
1FAD
  8
035
 10
-90.655382181912188
 20
3.2089522248458051
 30
0.0
 11
-89.994522883124887
 21
6.189895883609565
 31
0.0
  0
LINE
  5
1FAE
  8
035
 10
-88.699137905848474
 20
3.2089522248458051
 30
0.0
 11
-88.533923081151713
 21
3.954188139536805
 31
0.0
  0
LINE
  5
1FAF
  8
035
 10
-89.994522883124887
 20
6.189895883609565
 30
0.0
 11
-88.038278607061187
 21
6.189895883609565
 31
0.0
  0
LINE
  5
1FB0
  8
035
 10
-90.655382181912188
 20
3.2089522248458051
 30
0.0
 11
-88.699137905848474
 21
3.2089522248458051
 31
0.0
  0
LINE
  5
1FB1
  8
035
 10
-88.533923081151713
 20
3.954188139536805
 30
0.0
 11
-87.659502509444039
 21
4.3268060968822528
 31
0.0
  0
LINE
  5
1FB2
  8
035
 10
-88.261804546356856
 20
5.1816355284394691
 30
0.0
 11
-85.895725352324675
 21
6.189895883609565
 31
0.0
  0
LINE
  5
1FB3
  8
035
 10
-85.895725352324675
 20
6.189895883609565
 30
0.0
 11
-83.287399650906423
 21
6.189895883609565
 31
0.0
  0
LINE
  5
1FB4
  8
035
 10
-87.659502509444039
 20
4.3268060968822528
 30
0.0
 11
-86.556584651112004
 21
3.2089522248458051
 31
0.0
  0
LINE
  5
1FB5
  8
035
 10
-85.692056223102114
 20
5.1651965009095901
 30
0.0
 11
-83.761949971020954
 21
3.2089522248458051
 31
0.0
  0
LINE
  5
1FB6
  8
035
 10
-85.692056223102114
 20
5.1651965009095901
 30
0.0
 11
-83.287399650906423
 21
6.189895883609565
 31
0.0
  0
LINE
  5
1FB7
  8
035
 10
-88.261804546356856
 20
5.1816355284394691
 30
0.0
 11
-88.038278607061187
 21
6.189895883609565
 31
0.0
  0
LINE
  5
1FB8
  8
035
 10
-86.556584651112004
 20
3.2089522248458051
 30
0.0
 11
-83.761949971020954
 21
3.2089522248458051
 31
0.0
  0
TEXT
  5
1FB9
  8
035
 62
     4
 10
-78.273304881030242
 20
3.264636211106505
 30
0.0
 40
2.484848484848484
  1
NINGBO CHINA
 41
0.85
 51
15.0
  7
HELV
  0
LINE
  5
1FBA
  8
035
 10
-118.52369117490301
 20
5.6619217646532061
 30
0.0
 11
-114.9838205801212
 21
5.6619217646532229
 31
0.0
  0
LINE
  5
1FBB
  8
035
 10
-118.6984997776553
 20
4.8734111137059379
 30
0.0
 11
-115.4380926508824
 21
4.8734111137059379
 31
0.0
  0
LINE
  5
1FBC
  8
035
 10
-118.77564378256569
 20
4.5254369947496018
 30
0.0
 11
-115.5152366557929
 21
4.5254369947496018
 31
0.0
  0
LINE
  5
1FBD
  8
035
 10
-118.9504523853178
 20
3.736926343802164
 30
0.0
 11
-115.410581790536
 21
3.736926343802164
 31
0.0
  0
LINE
  5
1FBE
  8
0
 62
     4
 10
-83.394402359718015
 20
6.144298682356693
 30
0.0
 11
-83.348805158465154
 21
6.1898958836095481
 31
0.0
  0
LINE
  5
1FBF
  8
0
 62
     4
 10
-83.784164404957352
 20
3.2089522248457878
 30
0.0
 11
-83.772982485333955
 21
3.2201341444691729
 31
0.0
  0
LINE
  5
1FC0
  8
035
 10
-98.588630456920498
 20
5.6619217646532061
 30
0.0
 11
-96.900758252506478
 21
5.6619217646532061
 31
0.0
  0
LINE
  5
1FC1
  8
035
 10
-98.808873136464385
 20
4.6684712371658197
 30
0.0
 11
-97.176482420097443
 21
4.6684712371658197
 31
0.0
  0
LINE
  5
1FC2
  8
035
 10
-98.886017141374879
 20
4.3204971182094676
 30
0.0
 11
-97.147354744985734
 21
4.3204971182094676
 31
0.0
  0
LINE
  5
1FC3
  8
035
 10
-96.900758252506478
 20
5.6619217646532061
 30
0.0
 11
-96.767537947348103
 21
5.6401251817589433
 31
0.0
  0
LINE
  5
1FC4
  8
035
 10
-96.767537947348103
 20
5.6401251817589433
 30
0.0
 11
-96.652102072247857
 21
5.5816478242916414
 31
0.0
  0
LINE
  5
1FC5
  8
035
 10
-96.652102072247857
 20
5.5816478242916414
 30
0.0
 11
-96.596690756971086
 21
5.4923963524172636
 31
0.0
  0
LINE
  5
1FC6
  8
035
 10
-96.596690756971086
 20
5.4923963524172636
 30
0.0
 11
-96.553596393071174
 21
5.3846780336826923
 31
0.0
  0
LINE
  5
1FC7
  8
035
 10
-96.553596393071174
 20
5.3846780336826923
 30
0.0
 11
-96.552054903409157
 21
5.2677292642879561
 31
0.0
  0
LINE
  5
1FC8
  8
035
 10
-96.552054903409157
 20
5.2677292642879561
 30
0.0
 11
-96.564368113306287
 21
5.0984567711993662
 31
0.0
  0
LINE
  5
1FC9
  8
035
 10
-96.564368113306287
 20
5.0984567711993662
 30
0.0
 11
-96.625937904271467
 21
4.9953581369497799
 31
0.0
  0
LINE
  5
1FCA
  8
035
 10
-96.625937904271467
 20
4.9953581369497799
 30
0.0
 11
-96.735215303683276
 21
4.8676330765267011
 31
0.0
  0
LINE
  5
1FCB
  8
035
 10
-96.735215303683276
 20
4.8676330765267011
 30
0.0
 11
-96.899907759851644
 21
4.7691481812222181
 31
0.0
  0
LINE
  5
1FCC
  8
035
 10
-96.899907759851644
 20
4.7691481812222181
 30
0.0
 11
-97.056903992149316
 21
4.6891301327779473
 31
0.0
  0
LINE
  5
1FCD
  8
035
 10
-97.056903992149316
 20
4.6891301327779473
 30
0.0
 11
-97.176482420097443
 21
4.6684712371658197
 31
0.0
  0
LINE
  5
1FCE
  8
035
 10
-97.147354744985734
 20
4.3204971182094676
 30
0.0
 11
-97.047898250361925
 21
4.3065049139473466
 31
0.0
  0
LINE
  5
1FCF
  8
035
 10
-97.047898250361925
 20
4.3065049139473466
 30
0.0
 11
-96.984057381181131
 21
4.2661287526377603
 31
0.0
  0
LINE
  5
1FD0
  8
035
 10
-96.984057381181131
 20
4.2661287526377603
 30
0.0
 11
-96.944973883586158
 21
4.2023033820504541
 31
0.0
  0
LINE
  5
1FD1
  8
035
 10
-96.944973883586158
 20
4.2023033820504541
 30
0.0
 11
-96.926734169745899
 21
4.1254543063610036
 31
0.0
  0
LINE
  5
1FD2
  8
035
 10
-96.926734169745899
 20
4.1254543063610036
 30
0.0
 11
-96.935760818494984
 21
3.9925148410080471
 31
0.0
  0
LINE
  5
1FD3
  8
035
 62
     3
 10
-99.397082133556324
 20
3.2089522248457878
 30
0.0
 11
-99.057059510901098
 21
3.5489748475010141
 31
0.0
  0
LINE
  5
1FD4
  8
035
 62
     3
 10
-96.944112593748883
 20
5.6619217646532229
 30
0.0
 11
-96.416138474792476
 21
6.1898958836096334
 31
0.0
  0
LINE
  5
1FD5
  8
035
 62
     3
 10
-98.285537240192653
 20
4.3204971182094676
 30
0.0
 11
-97.93756312123628
 21
4.6684712371658197
 31
0.0
  0
LINE
  5
1FD6
  8
035
 62
     3
 10
-99.778919795397044
 20
3.2089522248457878
 30
0.0
 11
-98.94829580652565
 21
4.0395762137171944
 31
0.0
  0
LINE
  5
1FD7
  8
035
 62
     3
 10
-97.325950255589589
 20
5.6619217646532229
 30
0.0
 11
-96.79797613663321
 21
6.1898958836096334
 31
0.0
  0
LINE
  5
1FD8
  8
035
 62
     3
 10
-98.667374902033359
 20
4.3204971182094676
 30
0.0
 11
-98.319400783077015
 21
4.6684712371658197
 31
0.0
  0
LINE
  5
1FD9
  8
035
 62
     3
 10
-100.16075745723781
 20
3.2089522248457878
 30
0.0
 11
-98.701238444917735
 21
4.6684712371658197
 31
0.0
  0
LINE
  5
1FDA
  8
035
 62
     3
 10
-97.707787917430323
 20
5.6619217646532229
 30
0.0
 11
-97.179813798473916
 21
6.1898958836096334
 31
0.0
  0
LINE
  5
1FDB
  8
035
 62
     3
 10
-100.5425951190785
 20
3.2089522248457878
 30
0.0
 11
-98.730768397774682
 21
5.0207789461496377
 31
0.0
  0
LINE
  5
1FDC
  8
035
 62
     3
 10
-98.089625579271086
 20
5.6619217646532229
 30
0.0
 11
-97.561651460314664
 21
6.1898958836096334
 31
0.0
  0
LINE
  5
1FDD
  8
035
 62
     3
 10
-100.9244327809192
 20
3.2089522248457878
 30
0.0
 11
-98.62200469339912
 21
5.5113803123659197
 31
0.0
  0
LINE
  5
1FDE
  8
035
 62
     3
 10
-98.47146324111182
 20
5.6619217646532229
 30
0.0
 11
-97.943489122155412
 21
6.1898958836096334
 31
0.0
  0
LINE
  5
1FDF
  8
035
 62
     3
 10
-101.1463962136292
 20
3.3688264539765349
 30
0.0
 11
-98.325326783996161
 21
6.1898958836096334
 31
0.0
  0
LINE
  5
1FE0
  8
035
 62
     3
 10
-101.0376325092537
 20
3.8594278201927321
 30
0.0
 11
-98.707164445836867
 21
6.1898958836096334
 31
0.0
  0
LINE
  5
1FE1
  8
035
 62
     3
 10
-100.92886880487831
 20
4.3500291864089462
 30
0.0
 11
-99.089002107677615
 21
6.1898958836096334
 31
0.0
  0
LINE
  5
1FE2
  8
035
 62
     3
 10
-100.8201051005028
 20
4.8406305526251421
 30
0.0
 11
-99.470839769518363
 21
6.1898958836096334
 31
0.0
  0
LINE
  5
1FE3
  8
035
 62
     3
 10
-100.7113413961273
 20
5.3312319188413557
 30
0.0
 11
-99.852677431359055
 21
6.1898958836096334
 31
0.0
  0
LINE
  5
1FE4
  8
035
 62
     3
 10
-100.6025776917519
 20
5.8218332850575534
 30
0.0
 11
-100.2345150931998
 21
6.1898958836096334
 31
0.0
  0
LINE
  5
1FE5
  8
035
 62
     3
 10
-101.3615886697315
 20
5.444659968918617
 30
0.0
 11
-101.33163610429619
 21
5.4746125343539136
 31
0.0
  0
LINE
  5
1FE6
  8
035
 62
     3
 10
-103.97913407564501
 20
3.2089522248458562
 30
0.0
 11
-103.7363387506806
 21
3.4517475498102299
 31
0.0
  0
LINE
  5
1FE7
  8
035
 62
     3
 10
-101.74342633157229
 20
5.444659968918617
 30
0.0
 11
-101.2228723999209
 21
5.9652139005700429
 31
0.0
  0
LINE
  5
1FE8
  8
035
 62
     3
 10
-104.3609717374858
 20
3.2089522248458562
 30
0.0
 11
-103.6275750463052
 21
3.9423489160264769
 31
0.0
  0
LINE
  5
1FE9
  8
035
 62
     3
 10
-102.125263993413
 20
5.444659968918617
 30
0.0
 11
-101.38002807872201
 21
6.1898958836096334
 31
0.0
  0
LINE
  5
1FEA
  8
035
 62
     3
 10
-104.7428093993265
 20
3.2089522248458562
 30
0.0
 11
-103.51881134192971
 21
4.4329502822427092
 31
0.0
  0
LINE
  5
1FEB
  8
035
 62
     3
 10
-102.50710165525381
 20
5.444659968918617
 30
0.0
 11
-101.7618657405627
 21
6.1898958836096334
 31
0.0
  0
LINE
  5
1FEC
  8
035
 62
     3
 10
-105.1246470611672
 20
3.2089522248458562
 30
0.0
 11
-103.4100476375542
 21
4.9235516484589388
 31
0.0
  0
LINE
  5
1FED
  8
035
 62
     3
 10
-102.8889393170945
 20
5.444659968918617
 30
0.0
 11
-102.1437034024035
 21
6.1898958836096334
 31
0.0
  0
LINE
  5
1FEE
  8
035
 62
     3
 10
-105.506484723008
 20
3.2089522248458562
 30
0.0
 11
-103.30128393317869
 21
5.4141530146751533
 31
0.0
  0
LINE
  5
1FEF
  8
035
 62
     3
 10
-103.2707769789352
 20
5.444659968918617
 30
0.0
 11
-102.52554106424419
 21
6.1898958836096334
 31
0.0
  0
LINE
  5
1FF0
  8
035
 62
     3
 10
-105.82567545340881
 20
3.2715991562857849
 30
0.0
 11
-102.9073787260849
 21
6.1898958836096334
 31
0.0
  0
LINE
  5
1FF1
  8
035
 62
     3
 10
-105.7169117490333
 20
3.7622005225019981
 30
0.0
 11
-103.28921638792571
 21
6.1898958836096334
 31
0.0
  0
LINE
  5
1FF2
  8
035
 62
     3
 10
-105.6081480446579
 20
4.2528018887182286
 30
0.0
 11
-103.6710540497664
 21
6.1898958836096334
 31
0.0
  0
LINE
  5
1FF3
  8
035
 62
     3
 10
-105.4993843402824
 20
4.7434032549344263
 30
0.0
 11
-104.0528917116071
 21
6.1898958836096334
 31
0.0
  0
LINE
  5
1FF4
  8
035
 62
     3
 10
-105.3906206359069
 20
5.2340046211506399
 30
0.0
 11
-104.43472937344789
 21
6.1898958836096334
 31
0.0
  0
LINE
  5
1FF5
  8
035
 62
     3
 10
-105.56180294997959
 20
5.444659968918617
 30
0.0
 11
-104.8165670352886
 21
6.1898958836096334
 31
0.0
  0
LINE
  5
1FF6
  8
035
 62
     3
 10
-105.9436406118204
 20
5.444659968918617
 30
0.0
 11
-105.19840469712931
 21
6.1898958836096334
 31
0.0
  0
LINE
  5
1FF7
  8
035
 62
     3
 10
-106.3254782736611
 20
5.444659968918617
 30
0.0
 11
-105.5802423589701
 21
6.1898958836096334
 31
0.0
  0
LINE
  5
1FF8
  8
035
 62
     3
 10
-108.6223837756901
 20
3.5295921287303851
 30
0.0
 11
-108.0461888645634
 21
4.1057870398570309
 31
0.0
  0
LINE
  5
1FF9
  8
035
 62
     3
 10
-106.7073159355018
 20
5.444659968918617
 30
0.0
 11
-105.9620800208108
 21
6.1898958836096334
 31
0.0
  0
LINE
  5
1FFA
  8
035
 62
     3
 10
-109.20187581553419
 20
3.3319377507270209
 30
0.0
 11
-107.9374251601879
 21
4.5963884060732454
 31
0.0
  0
LINE
  5
1FFB
  8
035
 62
     3
 10
-107.0891535973426
 20
5.444659968918617
 30
0.0
 11
-106.34391768265159
 21
6.1898958836096334
 31
0.0
  0
LINE
  5
1FFC
  8
035
 62
     3
 10
-109.685112547144
 20
3.2305386809579169
 30
0.0
 11
-107.82866145581249
 21
5.086989772289475
 31
0.0
  0
LINE
  5
1FFD
  8
035
 62
     3
 10
-107.13181588656821
 20
5.7838353415337762
 30
0.0
 11
-106.7257553444923
 21
6.1898958836096334
 31
0.0
  0
LINE
  5
1FFE
  8
035
 62
     3
 10
-110.1242038578462
 20
3.1732850320964721
 30
0.0
 11
-107.719897751437
 21
5.5775911385057064
 31
0.0
  0
LINE
  5
1FFF
  8
035
 62
     3
 10
-110.54114237449591
 20
3.1381841772874299
 30
0.0
 11
-107.6111340470615
 21
6.0681925047219201
 31
0.0
  0
LINE
  5
2000
  8
035
 62
     3
 10
-110.9413656849794
 20
3.1197985286446981
 30
0.0
 11
-107.8712683300145
 21
6.1898958836096174
 31
0.0
  0
LINE
  5
2001
  8
035
 62
     3
 10
-111.3268095365532
 20
3.1161923389116928
 30
0.0
 11
-110.4862919020804
 21
3.9567099733844451
 31
0.0
  0
LINE
  5
2002
  8
035
 62
     3
 10
-110.0201084412425
 20
4.4228934342223249
 30
0.0
 11
-108.25310599185519
 21
6.1898958836096174
 31
0.0
  0
LINE
  5
2003
  8
035
 62
     3
 10
-111.69901312532539
 20
3.1258264119801851
 30
0.0
 11
-110.95507239316839
 21
3.8697671441372301
 31
0.0
  0
LINE
  5
2004
  8
035
 62
     3
 10
-109.91134473686699
 20
4.9134948004385732
 30
0.0
 11
-108.634943653696
 21
6.1898958836096174
 31
0.0
  0
LINE
  5
2005
  8
035
 62
     3
 10
-112.05922377853371
 20
3.1474534206126319
 30
0.0
 11
-111.3404602385114
 21
3.866216960634917
 31
0.0
  0
LINE
  5
2006
  8
035
 62
     3
 10
-109.8025810324915
 20
5.4040961666548384
 30
0.0
 11
-109.0167813155367
 21
6.1898958836096174
 31
0.0
  0
LINE
  5
2007
  8
035
 62
     3
 10
-112.40846839019569
 20
3.1800464707913392
 30
0.0
 11
-111.6794767945423
 21
3.9090380664447841
 31
0.0
  0
LINE
  5
2008
  8
035
 62
     3
 10
-109.693817328116
 20
5.8946975328710858
 30
0.0
 11
-109.3986189773774
 21
6.1898958836096174
 31
0.0
  0
LINE
  5
2009
  8
035
 62
     3
 10
-112.746026423499
 20
3.2243260993287799
 30
0.0
 11
-111.9717607396246
 21
3.9985917832031901
 31
0.0
  0
LINE
  5
200A
  8
035
 62
     3
 10
-113.0674304360607
 20
3.2847597486078559
 30
0.0
 11
-112.2055448239268
 21
4.1466453607417657
 31
0.0
  0
LINE
  5
200B
  8
035
 62
     3
 10
-113.37392582005521
 20
3.3601020264540549
 30
0.0
 11
-112.27463176538591
 21
4.4593960811233924
 31
0.0
  0
LINE
  5
200C
  8
035
 62
     3
 10
-113.66365029250341
 20
3.4522152158466688
 30
0.0
 11
-112.1658680610105
 21
4.9499974473395554
 31
0.0
  0
LINE
  5
200D
  8
035
 62
     3
 10
-113.9283730895371
 20
3.569330080653637
 30
0.0
 11
-112.05710435663499
 21
5.4405988135557344
 31
0.0
  0
LINE
  5
200E
  8
035
 62
     3
 10
-114.1703111462936
 20
3.709229685737883
 30
0.0
 11
-111.9483406522596
 21
5.9312001797718974
 31
0.0
  0
LINE
  5
200F
  8
035
 62
     3
 10
-114.36616270988991
 20
3.895215783982362
 30
0.0
 11
-112.07148261026261
 21
6.1898958836096174
 31
0.0
  0
LINE
  5
2010
  8
035
 62
     3
 10
-114.3573369855183
 20
4.2858791701946659
 30
0.0
 11
-112.4533202721033
 21
6.1898958836096174
 31
0.0
  0
LINE
  5
2011
  8
035
 62
     3
 10
-115.8161015927078
 20
3.2089522248458899
 30
0.0
 11
-115.4454620195999
 21
3.579591797953773
 31
0.0
  0
LINE
  5
2012
  8
035
 62
     3
 10
-114.2485732811428
 20
4.7764805364108982
 30
0.0
 11
-112.8351579339441
 21
6.1898958836096174
 31
0.0
  0
LINE
  5
2013
  8
035
 62
     3
 10
-116.1979392545486
 20
3.2089522248458899
 30
0.0
 11
-115.66996513559231
 21
3.736926343802164
 31
0.0
  0
LINE
  5
2014
  8
035
 62
     3
 10
-114.13980957676731
 20
5.2670819026271278
 30
0.0
 11
-113.21699559578479
 21
6.1898958836096174
 31
0.0
  0
LINE
  5
2015
  8
035
 62
     3
 10
-116.57977691638931
 20
3.2089522248458899
 30
0.0
 11
-116.051802797433
 21
3.736926343802164
 31
0.0
  0
LINE
  5
2016
  8
035
 62
     3
 10
-114.0310458723919
 20
5.7576832688433246
 30
0.0
 11
-113.5988332576255
 21
6.1898958836096174
 31
0.0
  0
LINE
  5
2017
  8
035
 62
     3
 10
-116.96161457823
 20
3.2089522248458899
 30
0.0
 11
-116.4336404592737
 21
3.736926343802164
 31
0.0
  0
LINE
  5
2018
  8
035
 62
     3
 10
-115.6451298083263
 20
4.5254369947496196
 30
0.0
 11
-115.4782375280105
 21
4.6923292750653642
 31
0.0
  0
LINE
  5
2019
  8
035
 62
     3
 10
-117.3434522400708
 20
3.2089522248458899
 30
0.0
 11
-116.8154781211145
 21
3.736926343802164
 31
0.0
  0
LINE
  5
201A
  8
035
 62
     3
 10
-116.02696747016699
 20
4.5254369947496196
 30
0.0
 11
-115.67899335121071
 21
4.8734111137059379
 31
0.0
  0
LINE
  5
201B
  8
035
 62
     3
 10
-117.72528990191149
 20
3.2089522248458899
 30
0.0
 11
-117.1973157829552
 21
3.736926343802164
 31
0.0
  0
LINE
  5
201C
  8
035
 62
     3
 10
-115.2723203621041
 20
5.6619217646532229
 30
0.0
 11
-114.9016434977226
 21
6.0325986290348084
 31
0.0
  0
LINE
  5
201D
  8
035
 62
     3
 10
-116.4088051320078
 20
4.5254369947496196
 30
0.0
 11
-116.0608310130514
 21
4.8734111137059379
 31
0.0
  0
LINE
  5
201E
  8
035
 62
     3
 10
-118.1071275637522
 20
3.2089522248458899
 30
0.0
 11
-117.57915344479591
 21
3.736926343802164
 31
0.0
  0
LINE
  5
201F
  8
035
 62
     3
 10
-115.6541580239449
 20
5.6619217646532229
 30
0.0
 11
-115.12618390498849
 21
6.1898958836096174
 31
0.0
  0
LINE
  5
2020
  8
035
 62
     3
 10
-116.79064279384851
 20
4.5254369947496196
 30
0.0
 11
-116.4426686748922
 21
4.8734111137059379
 31
0.0
  0
LINE
  5
2021
  8
035
 62
     3
 10
-118.48896522559301
 20
3.2089522248458899
 30
0.0
 11
-117.9609911066367
 21
3.736926343802164
 31
0.0
  0
LINE
  5
2022
  8
035
 62
     3
 10
-116.03599568578569
 20
5.6619217646532229
 30
0.0
 11
-115.5080215668292
 21
6.1898958836096174
 31
0.0
  0
LINE
  5
2023
  8
035
 62
     3
 10
-117.1724804556892
 20
4.5254369947496196
 30
0.0
 11
-116.8245063367329
 21
4.8734111137059379
 31
0.0
  0
LINE
  5
2024
  8
035
 62
     3
 10
-118.8708028874337
 20
3.2089522248458899
 30
0.0
 11
-118.3428287684774
 21
3.736926343802164
 31
0.0
  0
LINE
  5
2025
  8
035
 62
     3
 10
-116.4178333476264
 20
5.6619217646532229
 30
0.0
 11
-115.88985922867001
 21
6.1898958836096174
 31
0.0
  0
LINE
  5
2026
  8
035
 62
     3
 10
-117.55431811753
 20
4.5254369947496196
 30
0.0
 11
-117.2063439985737
 21
4.8734111137059379
 31
0.0
  0
LINE
  5
2027
  8
035
 62
     3
 10
-119.2526405492744
 20
3.2089522248458899
 30
0.0
 11
-118.72466643031809
 21
3.736926343802164
 31
0.0
  0
LINE
  5
2028
  8
035
 62
     3
 10
-116.7996710094671
 20
5.6619217646532061
 30
0.0
 11
-116.2716968905107
 21
6.1898958836096174
 31
0.0
  0
LINE
  5
2029
  8
035
 62
     3
 10
-117.93615577937069
 20
4.5254369947496196
 30
0.0
 11
-117.58818166041441
 21
4.8734111137059379
 31
0.0
  0
LINE
  5
202A
  8
035
 62
     3
 10
-119.63447821111519
 20
3.2089522248458899
 30
0.0
 11
-118.9060021819818
 21
3.9374282539792231
 31
0.0
  0
LINE
  5
202B
  8
035
 62
     3
 10
-117.1815086713078
 20
5.6619217646532061
 30
0.0
 11
-116.6535345523514
 21
6.1898958836096174
 31
0.0
  0
LINE
  5
202C
  8
035
 62
     3
 10
-118.3179934412114
 20
4.5254369947496196
 30
0.0
 11
-117.9700193222551
 21
4.8734111137059379
 31
0.0
  0
LINE
  5
202D
  8
035
 62
     3
 10
-120.0163158729559
 20
3.2089522248458899
 30
0.0
 11
-118.7972384776065
 21
4.4280296201953337
 31
0.0
  0
LINE
  5
202E
  8
035
 62
     3
 10
-117.5633463331486
 20
5.6619217646532061
 30
0.0
 11
-117.03537221419219
 21
6.1898958836096174
 31
0.0
  0
LINE
  5
202F
  8
035
 62
     3
 10
-118.6998311030522
 20
4.5254369947496196
 30
0.0
 11
-118.3518569840958
 21
4.8734111137059379
 31
0.0
  0
LINE
  5
2030
  8
035
 62
     3
 10
-120.39815353479661
 20
3.2089522248458899
 30
0.0
 11
-118.68847477323111
 21
4.9186309864114293
 31
0.0
  0
LINE
  5
2031
  8
035
 62
     3
 10
-117.94518399498931
 20
5.6619217646532061
 30
0.0
 11
-117.4172098760329
 21
6.1898958836096174
 31
0.0
  0
LINE
  5
2032
  8
035
 62
     3
 10
-120.7799911966374
 20
3.2089522248458899
 30
0.0
 11
-118.5797110688555
 21
5.4092323526277619
 31
0.0
  0
LINE
  5
2033
  8
035
 62
     3
 10
-118.3270216568301
 20
5.6619217646532061
 30
0.0
 11
-117.79904753787361
 21
6.1898958836096174
 31
0.0
  0
LINE
  5
2034
  8
035
 62
     3
 10
-121.1041025890855
 20
3.266678494238564
 30
0.0
 11
-118.1808851997144
 21
6.1898958836096174
 31
0.0
  0
LINE
  5
2035
  8
035
 62
     3
 10
-120.99533888470999
 20
3.7572798604547608
 30
0.0
 11
-118.5627228615551
 21
6.1898958836096174
 31
0.0
  0
LINE
  5
2036
  8
035
 62
     3
 10
-120.8865751803345
 20
4.247881226670958
 30
0.0
 11
-118.94456052339579
 21
6.1898958836096174
 31
0.0
  0
LINE
  5
2037
  8
035
 62
     3
 10
-122.30734184400031
 20
3.2089522248458731
 30
0.0
 11
-122.09438908826191
 21
3.4219049805843289
 31
0.0
  0
LINE
  5
2038
  8
035
 62
     3
 10
-120.7778114759591
 20
4.738482592887137
 30
0.0
 11
-119.3263981852366
 21
6.1898958836096174
 31
0.0
  0
LINE
  5
2039
  8
035
 62
     3
 10
-122.6891795058411
 20
3.2089522248458731
 30
0.0
 11
-121.9856253838864
 21
3.912506346800543
 31
0.0
  0
LINE
  5
203A
  8
035
 62
     3
 10
-120.66904777158361
 20
5.2290839591033507
 30
0.0
 11
-119.7082358470773
 21
6.1898958836096174
 31
0.0
  0
LINE
  5
203B
  8
035
 62
     3
 10
-123.0710171676818
 20
3.2089522248458731
 30
0.0
 11
-121.8768616795109
 21
4.4031077130167571
 31
0.0
  0
LINE
  5
203C
  8
035
 62
     3
 10
-120.5602840672082
 20
5.7196853253195483
 30
0.0
 11
-120.090073508918
 21
6.1898958836096174
 31
0.0
  0
LINE
  5
203D
  8
035
 62
     3
 10
-123.45285482952249
 20
3.2089522248458731
 30
0.0
 11
-121.7680979751354
 21
4.893709079232953
 31
0.0
  0
LINE
  5
203E
  8
035
 62
     3
 10
-123.8346924913633
 20
3.2089522248458731
 30
0.0
 11
-121.65933427076
 21
5.3843104454491497
 31
0.0
  0
LINE
  5
203F
  8
035
 62
     3
 10
-124.216530153204
 20
3.2089522248458731
 30
0.0
 11
-121.55057056638449
 21
5.8749118116653651
 31
0.0
  0
LINE
  5
2040
  8
035
 62
     3
 10
-124.53779589722249
 20
3.2695241426681458
 30
0.0
 11
-121.617424156281
 21
6.1898958836096174
 31
0.0
  0
LINE
  5
2041
  8
035
 62
     3
 10
-124.73880827529629
 20
3.4503494264350341
 30
0.0
 11
-121.9992618181217
 21
6.1898958836096174
 31
0.0
  0
LINE
  5
2042
  8
035
 62
     3
 10
-124.93982065337021
 20
3.6311747102019201
 30
0.0
 11
-122.3810994799625
 21
6.1898958836096174
 31
0.0
  0
LINE
  5
2043
  8
035
 62
     3
 10
-125.140833031444
 20
3.8119999939688078
 30
0.0
 11
-123.964738004376
 21
4.9880950210368242
 31
0.0
  0
LINE
  5
2044
  8
035
 62
     3
 10
-123.7486709734882
 20
5.2041620519246381
 30
0.0
 11
-122.76293714180321
 21
6.1898958836096174
 31
0.0
  0
LINE
  5
2045
  8
035
 62
     3
 10
-125.3418454095179
 20
3.9928252777356952
 30
0.0
 11
-124.188867265826
 21
5.1458034214275887
 31
0.0
  0
LINE
  5
2046
  8
035
 62
     3
 10
-123.6399072691127
 20
5.6947634181409033
 30
0.0
 11
-123.1447748036439
 21
6.1898958836096174
 31
0.0
  0
LINE
  5
2047
  8
035
 62
     3
 10
-125.5428577875917
 20
4.1736505615026003
 30
0.0
 11
-124.41299652727589
 21
5.303511821818371
 31
0.0
  0
LINE
  5
2048
  8
035
 62
     3
 10
-123.53114356473711
 20
6.1853647843571498
 30
0.0
 11
-123.5266124654847
 21
6.1898958836096174
 31
0.0
  0
LINE
  5
2049
  8
035
 62
     3
 10
-126.8893937860892
 20
3.2089522248458562
 30
0.0
 11
-126.65397945419581
 21
3.4443665567392281
 31
0.0
  0
LINE
  5
204A
  8
035
 62
     3
 10
-125.7438701656655
 20
4.3544758452694881
 30
0.0
 11
-124.6371257887259
 21
5.461220222209155
 31
0.0
  0
LINE
  5
204B
  8
035
 62
     3
 10
-127.27123144792991
 20
3.2089522248458562
 30
0.0
 11
-126.5452157498203
 21
3.9349679229554591
 31
0.0
  0
LINE
  5
204C
  8
035
 62
     3
 10
-125.9448825437394
 20
4.5353011290363741
 30
0.0
 11
-124.8612550501758
 21
5.6189286225999204
 31
0.0
  0
LINE
  5
204D
  8
035
 62
     3
 10
-127.6530691097707
 20
3.2089522248458562
 30
0.0
 11
-126.4364520454448
 21
4.4255692891716558
 31
0.0
  0
LINE
  5
204E
  8
035
 62
     3
 10
-126.14589492181319
 20
4.7161264128032618
 30
0.0
 11
-125.0853843116258
 21
5.7766370229907027
 31
0.0
  0
LINE
  5
204F
  8
035
 62
     3
 10
-128.03490677161139
 20
3.2089522248458562
 30
0.0
 11
-125.3095135730758
 21
5.9343454233814681
 31
0.0
  0
LINE
  5
2050
  8
035
 62
     3
 10
-128.4167444334521
 20
3.2089522248458562
 30
0.0
 11
-125.53364283452569
 21
6.0920538237722521
 31
0.0
  0
LINE
  5
2051
  8
035
 62
     3
 10
-128.7433161569239
 20
3.264218163214835
 30
0.0
 11
-125.81763843652909
 21
6.1898958836096174
 31
0.0
  0
LINE
  5
2052
  8
035
 62
     3
 10
-128.63455245254841
 20
3.7548195294310309
 30
0.0
 11
-126.1994760983699
 21
6.1898958836096174
 31
0.0
  0
LINE
  5
2053
  8
035
 62
     3
 10
-128.52578874817289
 20
4.2454208956472277
 30
0.0
 11
-126.58131376021061
 21
6.1898958836096174
 31
0.0
  0
LINE
  5
2054
  8
035
 62
     3
 10
-128.41702504379751
 20
4.7360222618634422
 30
0.0
 11
-126.9631514220513
 21
6.1898958836096174
 31
0.0
  0
LINE
  5
2055
  8
035
 62
     3
 10
-128.30826133942199
 20
5.2266236280796381
 30
0.0
 11
-127.344989083892
 21
6.1898958836096174
 31
0.0
  0
LINE
  5
2056
  8
035
 62
     3
 10
-128.1994976350465
 20
5.7172249942958517
 30
0.0
 11
-127.72682674573279
 21
6.1898958836096174
 31
0.0
  0
LINE
  5
2057
  8
035
 62
     3
 10
-97.903699578351905
 20
4.3204971182094676
 30
0.0
 11
-97.555725459395532
 21
4.6684712371658197
 31
0.0
  0
LINE
  5
2058
  8
035
 62
     3
 10
-96.648442835575366
 20
5.575753860986012
 30
0.0
 11
-96.034300812951713
 21
6.1898958836096334
 31
0.0
  0
LINE
  5
2059
  8
035
 62
     3
 10
-97.521861916511156
 20
4.3204971182094676
 30
0.0
 11
-97.173345922406455
 21
4.669013112314186
 31
0.0
  0
LINE
  5
205A
  8
035
 62
     3
 10
-96.552348589357834
 20
5.2900104453627836
 30
0.0
 11
-95.652463151111007
 21
6.1898958836096334
 31
0.0
  0
LINE
  5
205B
  8
035
 62
     3
 10
-97.140928361274021
 20
4.3195930116058694
 30
0.0
 11
-95.270829982268765
 21
6.1896913906111326
 31
0.0
  0
LINE
  5
205C
  8
035
 62
     3
 10
-96.931816425032622
 20
4.1468672860065077
 30
0.0
 11
-94.929703162999743
 21
6.1489805480393862
 31
0.0
  0
LINE
  5
205D
  8
035
 62
     3
 10
-96.95283509237818
 20
3.744010956820258
 30
0.0
 11
-94.646299004069519
 21
6.0505470451288854
 31
0.0
  0
LINE
  5
205E
  8
035
 62
     3
 10
-96.962121863985502
 20
3.3528865233721681
 30
0.0
 11
-94.418345581340859
 21
5.8966628060168338
 31
0.0
  0
LINE
  5
205F
  8
035
 62
     3
 10
-96.724218500671157
 20
3.2089522248458051
 30
0.0
 11
-94.267355379022163
 21
5.6658153464947949
 31
0.0
  0
LINE
  5
2060
  8
035
 62
     3
 10
-96.342380838830422
 20
3.2089522248458051
 30
0.0
 11
-95.022979772043726
 21
4.5283532916325013
 31
0.0
  0
LINE
  5
2061
  8
035
 62
     3
 10
-94.969135470699968
 20
4.5821975929762484
 30
0.0
 11
-94.287360214694175
 21
5.263972848982049
 31
0.0
  0
LINE
  5
2062
  8
035
 62
     3
 10
-95.960543176989688
 20
3.2089522248458051
 30
0.0
 11
-94.873526014076333
 21
4.2959693877591141
 31
0.0
  0
LINE
  5
2063
  8
035
 62
     3
 10
-93.333355914920759
 20
5.8361394869147123
 30
0.0
 11
-92.979599518225925
 21
6.1898958836095481
 31
0.0
  0
LINE
  5
2064
  8
035
 62
     3
 10
-95.578705515148926
 20
3.2089522248458051
 30
0.0
 11
-94.892504867759584
 21
3.8951528722351858
 31
0.0
  0
LINE
  5
2065
  8
035
 62
     3
 10
-93.44211961929625
 20
5.3455381206985146
 30
0.0
 11
-92.597761856385176
 21
6.1898958836095481
 31
0.0
  0
LINE
  5
2066
  8
035
 62
     3
 10
-95.19686785330822
 20
3.2089522248458051
 30
0.0
 11
-94.919803156182667
 21
3.4860169219713582
 31
0.0
  0
LINE
  5
2067
  8
035
 62
     3
 10
-93.550883323671698
 20
4.8549367544823001
 30
0.0
 11
-92.215924194544471
 21
6.1898958836095481
 31
0.0
  0
LINE
  5
2068
  8
035
 62
     3
 10
-93.659647028047175
 20
4.3643353882660874
 30
0.0
 11
-91.834086532703722
 21
6.1898958836095481
 31
0.0
  0
LINE
  5
2069
  8
035
 62
     3
 10
-93.768410732422666
 20
3.8737340220498728
 30
0.0
 11
-91.452248870862974
 21
6.1898958836095481
 31
0.0
  0
LINE
  5
206A
  8
035
 62
     3
 10
-93.877174436798128
 20
3.3831326558336601
 30
0.0
 11
-91.244019212192654
 21
6.0162878804391386
 31
0.0
  0
LINE
  5
206B
  8
035
 62
     3
 10
-93.669517205945255
 20
3.2089522248458051
 30
0.0
 11
-91.352782916568117
 21
5.5256865142229419
 31
0.0
  0
LINE
  5
206C
  8
035
 62
     3
 10
-93.287679544104535
 20
3.2089522248458051
 30
0.0
 11
-91.461546620943594
 21
5.0350851480067291
 31
0.0
  0
LINE
  5
206D
  8
035
 62
     3
 10
-92.905841882263786
 20
3.2089522248458051
 30
0.0
 11
-91.57031032531907
 21
4.5444837817905324
 31
0.0
  0
LINE
  5
206E
  8
035
 62
     3
 10
-90.014354965324884
 20
6.1004391417847073
 30
0.0
 11
-89.924898223499994
 21
6.1898958836095819
 31
0.0
  0
LINE
  5
206F
  8
035
 62
     3
 10
-92.524004220423038
 20
3.2089522248458051
 30
0.0
 11
-91.679074029694505
 21
4.0538824155743178
 31
0.0
  0
LINE
  5
2070
  8
035
 62
     3
 10
-90.123118669700347
 20
5.6098377755684927
 30
0.0
 11
-89.543060561659246
 21
6.1898958836095819
 31
0.0
  0
LINE
  5
2071
  8
035
 62
     3
 10
-92.142166558582275
 20
3.2089522248458051
 30
0.0
 11
-91.787837734069996
 21
3.5632810493581211
 31
0.0
  0
LINE
  5
2072
  8
035
 62
     3
 10
-90.231882374075823
 20
5.1192364093522631
 30
0.0
 11
-89.161222899818554
 21
6.1898958836095819
 31
0.0
  0
LINE
  5
2073
  8
035
 62
     3
 10
-90.340646078451286
 20
4.6286350431360663
 30
0.0
 11
-88.779385237977777
 21
6.1898958836095819
 31
0.0
  0
LINE
  5
2074
  8
035
 62
     3
 10
-90.449409782826805
 20
4.1380336769198509
 30
0.0
 11
-88.397547576137043
 21
6.1898958836095819
 31
0.0
  0
LINE
  5
2075
  8
035
 62
     3
 10
-90.558173487202282
 20
3.6474323107036208
 30
0.0
 11
-88.04470713644244
 21
6.1608986614634862
 31
0.0
  0
LINE
  5
2076
  8
035
 62
     3
 10
-90.614815911219367
 20
3.2089522248457878
 30
0.0
 11
-88.153470840817874
 21
5.6702972952473054
 31
0.0
  0
LINE
  5
2077
  8
035
 62
     3
 10
-90.232978249378647
 20
3.2089522248457878
 30
0.0
 11
-88.259173978565173
 21
5.1827564956592731
 31
0.0
  0
LINE
  5
2078
  8
035
 62
     3
 10
-89.851140587537927
 20
3.2089522248457878
 30
0.0
 11
-87.593799393000864
 21
5.4662934193828363
 31
0.0
  0
LINE
  5
2079
  8
035
 62
     3
 10
-89.469302925697164
 20
3.2089522248457878
 30
0.0
 11
-86.928424807436556
 21
5.7498303431063977
 31
0.0
  0
LINE
  5
207A
  8
035
 62
     3
 10
-89.087465263856444
 20
3.2089522248457878
 30
0.0
 11
-88.588525658319895
 21
3.7078918303823309
 31
0.0
  0
LINE
  5
207B
  8
035
 62
     3
 10
-88.199885477682315
 20
4.0965320110198906
 30
0.0
 11
-86.263050221872263
 21
6.0333672668299778
 31
0.0
  0
LINE
  5
207C
  8
035
 62
     3
 10
-88.705627602015682
 20
3.2089522248457878
 30
0.0
 11
-88.697289362695287
 21
3.2172904641661679
 31
0.0
  0
LINE
  5
207D
  8
035
 62
     3
 10
-87.623879329111617
 20
4.2907004977498691
 30
0.0
 11
-85.724683943251932
 21
6.189895883609565
 31
0.0
  0
LINE
  5
207E
  8
035
 62
     3
 10
-87.434244541137247
 20
4.0984976238835173
 30
0.0
 11
-85.342846281411184
 21
6.189895883609565
 31
0.0
  0
LINE
  5
207F
  8
035
 62
     3
 10
-87.244609753162877
 20
3.906294750017147
 30
0.0
 11
-84.961008619570464
 21
6.189895883609565
 31
0.0
  0
LINE
  5
2080
  8
035
 62
     3
 10
-87.054974965188535
 20
3.7140918761507771
 30
0.0
 11
-85.648259833080488
 21
5.1208070082587964
 31
0.0
  0
LINE
  5
2081
  8
035
 62
     3
 10
-85.538387135425126
 20
5.2306797059141577
 30
0.0
 11
-84.57917095772973
 21
6.189895883609565
 31
0.0
  0
LINE
  5
2082
  8
035
 62
     3
 10
-86.865340177214165
 20
3.521889002284408
 30
0.0
 11
-85.458625045106118
 21
4.9286041343924261
 31
0.0
  0
LINE
  5
2083
  8
035
 62
     3
 10
-84.873012549860846
 20
5.5142166296377031
 30
0.0
 11
-84.197333295888996
 21
6.189895883609565
 31
0.0
  0
LINE
  5
2084
  8
035
 62
     3
 10
-86.675705389239781
 20
3.329686128418055
 30
0.0
 11
-85.268990257131748
 21
4.7364012605260557
 31
0.0
  0
LINE
  5
2085
  8
035
 62
     3
 10
-84.207637964296552
 20
5.7977535533612494
 30
0.0
 11
-83.815495634048219
 21
6.189895883609565
 31
0.0
  0
LINE
  5
2086
  8
035
 62
     3
 10
-86.414601630971276
 20
3.2089522248458051
 30
0.0
 11
-85.079355469157363
 21
4.5441983866597031
 31
0.0
  0
LINE
  5
2087
  8
035
 62
     3
 10
-83.542263378732287
 20
6.081290477084794
 30
0.0
 11
-83.433657972207527
 21
6.189895883609565
 31
0.0
  0
LINE
  5
2088
  8
035
 62
     3
 10
-86.032763969130585
 20
3.2089522248458051
 30
0.0
 11
-84.889720681183036
 21
4.3519955127933336
 31
0.0
  0
LINE
  5
2089
  8
035
 62
     3
 10
-85.650926307289836
 20
3.2089522248458051
 30
0.0
 11
-84.700085893208652
 21
4.159792638926981
 31
0.0
  0
LINE
  5
208A
  8
035
 62
     3
 10
-85.269088645449074
 20
3.2089522248458051
 30
0.0
 11
-84.510451105234267
 21
3.9675897650606111
 31
0.0
  0
LINE
  5
208B
  8
035
 62
     3
 10
-84.88725098360834
 20
3.2089522248458051
 30
0.0
 11
-84.320816317259897
 21
3.7753868911942421
 31
0.0
  0
LINE
  5
208C
  8
035
 62
     3
 10
-84.505413321767634
 20
3.2089522248458051
 30
0.0
 11
-84.131181529285513
 21
3.583184017327889
 31
0.0
  0
LINE
  5
208D
  8
035
 62
     3
 10
-84.123575659926871
 20
3.2089522248458051
 30
0.0
 11
-83.941546741311143
 21
3.3909811434615191
 31
0.0
  0
LINE
  5
208E
  8
035
 62
     3
 10
-96.613061305663678
 20
3.2089522248458051
 30
0.0
 11
-96.965390148354302
 21
3.5612810675364441
 31
0.0
  0
LINE
  5
208F
  8
035
 62
     3
 10
-98.675261856174089
 20
5.2711527753562084
 30
0.0
 11
-99.594004964427455
 21
6.1898958836096334
 31
0.0
  0
LINE
  5
2090
  8
035
 62
     3
 10
-97.72460619902732
 20
4.3204971182094676
 30
0.0
 11
-98.07258031798365
 21
4.6684712371658197
 31
0.0
  0
LINE
  5
2091
  8
035
 62
     3
 10
-98.106443860868026
 20
4.3204971182094676
 30
0.0
 11
-98.454417979824399
 21
4.6684712371658197
 31
0.0
  0
LINE
  5
2092
  8
035
 62
     3
 10
-98.744551977686982
 20
4.9586052350283722
 30
0.0
 11
-99.975842626268175
 21
6.1898958836096334
 31
0.0
  0
LINE
  5
2093
  8
035
 62
     3
 10
-98.488281522708803
 20
4.3204971182094676
 30
0.0
 11
-100.3576802881089
 21
6.1898958836096334
 31
0.0
  0
LINE
  5
2094
  8
035
 62
     3
 10
-98.870119184549523
 20
4.3204971182094676
 30
0.0
 11
-100.5606371063987
 21
6.0110150400586599
 31
0.0
  0
LINE
  5
2095
  8
035
 62
     3
 10
-98.952422342225574
 20
4.0209626140447794
 30
0.0
 11
-100.62992722791159
 21
5.69846749973079
 31
0.0
  0
LINE
  5
2096
  8
035
 62
     3
 10
-99.021712463738425
 20
3.708415073716909
 30
0.0
 11
-100.6992173494245
 21
5.3859199594029361
 31
0.0
  0
LINE
  5
2097
  8
035
 62
     3
 10
-101.2329689039609
 20
5.9196715139393881
 30
0.0
 11
-101.5031932736311
 21
6.1898958836096334
 31
0.0
  0
LINE
  5
2098
  8
035
 62
     3
 10
-99.091002585251275
 20
3.3958675333890391
 30
0.0
 11
-100.76850747093729
 21
5.0733724190750671
 31
0.0
  0
LINE
  5
2099
  8
035
 62
     3
 10
-101.3022590254737
 20
5.6071239736115022
 30
0.0
 11
-101.8850309354718
 21
6.1898958836096334
 31
0.0
  0
LINE
  5
209A
  8
035
 62
     3
 10
-99.285924938548845
 20
3.2089522248457878
 30
0.0
 11
-100.8377975924502
 21
4.7608248787471812
 31
0.0
  0
LINE
  5
209B
  8
035
 62
     3
 10
-101.5216326826216
 20
5.444659968918617
 30
0.0
 11
-102.26686859731259
 21
6.1898958836096334
 31
0.0
  0
LINE
  5
209C
  8
035
 62
     3
 10
-99.667762600389565
 20
3.2089522248457878
 30
0.0
 11
-100.90708771396309
 21
4.4482773384193113
 31
0.0
  0
LINE
  5
209D
  8
035
 62
     3
 10
-101.90347034446241
 20
5.444659968918617
 30
0.0
 11
-102.6487062591533
 21
6.1898958836096334
 31
0.0
  0
LINE
  5
209E
  8
035
 62
     3
 10
-100.0496002622303
 20
3.2089522248457878
 30
0.0
 11
-100.9763778354759
 21
4.1357297980914582
 31
0.0
  0
LINE
  5
209F
  8
035
 62
     3
 10
-102.2853080063031
 20
5.444659968918617
 30
0.0
 11
-103.03054392099411
 21
6.1898958836096334
 31
0.0
  0
LINE
  5
20A0
  8
035
 62
     3
 10
-100.43143792407101
 20
3.2089522248457878
 30
0.0
 11
-101.04566795698879
 21
3.8231822577635879
 31
0.0
  0
LINE
  5
20A1
  8
035
 62
     3
 10
-102.6671456681438
 20
5.444659968918617
 30
0.0
 11
-103.4123815828348
 21
6.1898958836096334
 31
0.0
  0
LINE
  5
20A2
  8
035
 62
     3
 10
-100.8132755859117
 20
3.2089522248457878
 30
0.0
 11
-101.1149580785017
 21
3.5106347174357349
 31
0.0
  0
LINE
  5
20A3
  8
035
 62
     3
 10
-103.04898332998459
 20
5.444659968918617
 30
0.0
 11
-103.7942192446755
 21
6.1898958836096334
 31
0.0
  0
LINE
  5
20A4
  8
035
 62
     3
 10
-103.3192544181603
 20
5.3330933952536181
 30
0.0
 11
-104.17605690651629
 21
6.1898958836096334
 31
0.0
  0
LINE
  5
20A5
  8
035
 62
     3
 10
-103.38854453967321
 20
5.020545854925782
 30
0.0
 11
-104.557894568357
 21
6.1898958836096334
 31
0.0
  0
LINE
  5
20A6
  8
035
 62
     3
 10
-103.457834661186
 20
4.7079983145979289
 30
0.0
 11
-104.93973223019771
 21
6.1898958836096334
 31
0.0
  0
LINE
  5
20A7
  8
035
 62
     3
 10
-103.527124782699
 20
4.3954507742700759
 30
0.0
 11
-105.3215698920385
 21
6.1898958836096334
 31
0.0
  0
LINE
  5
20A8
  8
035
 62
     3
 10
-103.5964149042118
 20
4.0829032339422406
 30
0.0
 11
-105.7034075538792
 21
6.1898958836096334
 31
0.0
  0
LINE
  5
20A9
  8
035
 62
     3
 10
-103.66570502572471
 20
3.7703556936143361
 30
0.0
 11
-106.08524521571999
 21
6.1898958836096334
 31
0.0
  0
LINE
  5
20AA
  8
035
 62
     3
 10
-103.7349951472376
 20
3.4578081532865008
 30
0.0
 11
-105.4125000329236
 21
5.1353130389724777
 31
0.0
  0
LINE
  5
20AB
  8
035
 62
     3
 10
-105.72184696286971
 20
5.444659968918617
 30
0.0
 11
-106.4670828775607
 21
6.1898958836096334
 31
0.0
  0
LINE
  5
20AC
  8
035
 62
     3
 10
-103.8679768806377
 20
3.2089522248458562
 30
0.0
 11
-105.4817901544364
 21
4.8227654986446247
 31
0.0
  0
LINE
  5
20AD
  8
035
 62
     3
 10
-106.1036846247104
 20
5.444659968918617
 30
0.0
 11
-106.8489205394014
 21
6.1898958836096334
 31
0.0
  0
LINE
  5
20AE
  8
035
 62
     3
 10
-104.2498145424784
 20
3.2089522248458562
 30
0.0
 11
-105.5510802759493
 21
4.5102179583167716
 31
0.0
  0
LINE
  5
20AF
  8
035
 62
     3
 10
-106.4855222865511
 20
5.444659968918617
 30
0.0
 11
-107.076084717482
 21
6.035222399849518
 31
0.0
  0
LINE
  5
20B0
  8
035
 62
     3
 10
-104.6316522043191
 20
3.2089522248458562
 30
0.0
 11
-105.6203703974622
 21
4.1976704179889186
 31
0.0
  0
LINE
  5
20B1
  8
035
 62
     3
 10
-107.5893144275359
 20
6.1666144480626341
 30
0.0
 11
-107.6125958630829
 21
6.1898958836096174
 31
0.0
  0
LINE
  5
20B2
  8
035
 62
     3
 10
-106.86735994839189
 20
5.444659968918617
 30
0.0
 11
-107.1453748389949
 21
5.722674859521649
 31
0.0
  0
LINE
  5
20B3
  8
035
 62
     3
 10
-105.0134898661599
 20
3.2089522248458562
 30
0.0
 11
-105.6896605189751
 21
3.8851228776610149
 31
0.0
  0
LINE
  5
20B4
  8
035
 62
     3
 10
-107.6586045490488
 20
5.8540669077347474
 30
0.0
 11
-107.99443352492359
 21
6.1898958836096174
 31
0.0
  0
LINE
  5
20B5
  8
035
 62
     3
 10
-105.39532752800061
 20
3.2089522248458562
 30
0.0
 11
-105.7589506404879
 21
3.5725753373331619
 31
0.0
  0
LINE
  5
20B6
  8
035
 62
     3
 10
-107.7278946705616
 20
5.5415193674068943
 30
0.0
 11
-108.3762711867644
 21
6.1898958836096174
 31
0.0
  0
LINE
  5
20B7
  8
035
 62
     3
 10
-105.7771651898414
 20
3.2089522248458562
 30
0.0
 11
-105.8282407620008
 21
3.2600277970053089
 31
0.0
  0
LINE
  5
20B8
  8
035
 62
     3
 10
-107.7971847920745
 20
5.2289718270790413
 30
0.0
 11
-108.7581088486051
 21
6.1898958836096174
 31
0.0
  0
LINE
  5
20B9
  8
035
 62
     3
 10
-107.8664749135874
 20
4.9164242867511891
 30
0.0
 11
-109.1399465104458
 21
6.1898958836096174
 31
0.0
  0
LINE
  5
20BA
  8
035
 62
     3
 10
-107.9357650351003
 20
4.6038767464233361
 30
0.0
 11
-109.5217841722865
 21
6.1898958836096174
 31
0.0
  0
LINE
  5
20BB
  8
035
 62
     3
 10
-108.0050551566132
 20
4.2913292060954493
 30
0.0
 11
-109.67832134521829
 21
5.9645953947005381
 31
0.0
  0
LINE
  5
20BC
  8
035
 62
     3
 10
-108.074345278126
 20
3.9787816657675958
 30
0.0
 11
-109.7476114667311
 21
5.6520478543727011
 31
0.0
  0
LINE
  5
20BD
  8
035
 62
     3
 10
-108.23186537987149
 20
3.7544641056723922
 30
0.0
 11
-109.81690158824399
 21
5.3395003140448489
 31
0.0
  0
LINE
  5
20BE
  8
035
 62
     3
 10
-108.4674968942431
 20
3.608257958203168
 30
0.0
 11
-109.8861917097569
 21
5.0269527737170128
 31
0.0
  0
LINE
  5
20BF
  8
035
 62
     3
 10
-108.7252521362114
 20
3.4841755383307969
 30
0.0
 11
-109.95548183126979
 21
4.7144052333891766
 31
0.0
  0
LINE
  5
20C0
  8
035
 62
     3
 10
-109.0078270096099
 20
3.3849127498884708
 30
0.0
 11
-110.0247719527827
 21
4.4018576930612898
 31
0.0
  0
LINE
  5
20C1
  8
035
 62
     3
 10
-109.3102160670833
 20
3.305464145521201
 30
0.0
 11
-110.1459810757661
 21
4.1412291542039412
 31
0.0
  0
LINE
  5
20C2
  8
035
 62
     3
 10
-111.94609256548139
 20
5.9413406439192524
 30
0.0
 11
-112.1946478051717
 21
6.1898958836096174
 31
0.0
  0
LINE
  5
20C3
  8
035
 62
     3
 10
-109.6270622842185
 20
3.240472700815606
 30
0.0
 11
-110.38182420883339
 21
3.9952346254305739
 31
0.0
  0
LINE
  5
20C4
  8
035
 62
     3
 10
-112.0153826869942
 20
5.6287931035913816
 30
0.0
 11
-112.5764854670125
 21
6.1898958836096174
 31
0.0
  0
LINE
  5
20C5
  8
035
 62
     3
 10
-109.9600312549295
 20
3.1916040096859288
 30
0.0
 11
-110.67554994914551
 21
3.907122703901885
 31
0.0
  0
LINE
  5
20C6
  8
035
 62
     3
 10
-112.08467280850709
 20
5.3162455632635117
 30
0.0
 11
-112.95832312885319
 21
6.1898958836096174
 31
0.0
  0
LINE
  5
20C7
  8
035
 62
     3
 10
-110.306216975018
 20
3.1559520679337161
 30
0.0
 11
-111.01583304788799
 21
3.8655681408037328
 31
0.0
  0
LINE
  5
20C8
  8
035
 62
     3
 10
-112.15396293002
 20
5.0036980229356418
 30
0.0
 11
-113.340160790694
 21
6.1898958836096174
 31
0.0
  0
LINE
  5
20C9
  8
035
 62
     3
 10
-110.66310066100689
 20
3.1309980920817821
 30
0.0
 11
-111.4029055697653
 21
3.8708030008402909
 31
0.0
  0
LINE
  5
20CA
  8
035
 62
     3
 10
-112.22325305153279
 20
4.691150482607739
 30
0.0
 11
-113.72199845253471
 21
6.1898958836096174
 31
0.0
  0
LINE
  5
20CB
  8
035
 62
     3
 10
-111.0316546162849
 20
3.1177143855190388
 30
0.0
 11
-111.87645555302009
 21
3.9625153222543159
 31
0.0
  0
LINE
  5
20CC
  8
035
 62
     3
 10
-112.2925431730457
 20
4.3786029422798523
 30
0.0
 11
-113.96582333838479
 21
6.0518831076190533
 31
0.0
  0
LINE
  5
20CD
  8
035
 62
     3
 10
-111.41305497107101
 20
3.1172770784644541
 30
0.0
 11
-114.0351134598977
 21
5.7393355672912012
 31
0.0
  0
LINE
  5
20CE
  8
035
 62
     3
 10
-111.8087459043527
 20
3.131130349905427
 30
0.0
 11
-114.10440358141059
 21
5.4267880269633473
 31
0.0
  0
LINE
  5
20CF
  8
035
 62
     3
 10
-114.866905802177
 20
6.1892902477297378
 30
0.0
 11
-114.86751143805689
 21
6.1898958836096174
 31
0.0
  0
LINE
  5
20D0
  8
035
 62
     3
 10
-112.2205328597373
 20
3.1610796434493378
 30
0.0
 11
-114.1736937029235
 21
5.1142404866354951
 31
0.0
  0
LINE
  5
20D1
  8
035
 62
     3
 10
-114.93619592368989
 20
5.8767427074019016
 30
0.0
 11
-115.2493490998976
 21
6.1898958836096174
 31
0.0
  0
LINE
  5
20D2
  8
035
 62
     3
 10
-112.6513507175187
 20
3.2100598393899218
 30
0.0
 11
-114.24298382443629
 21
4.8016929463075906
 31
0.0
  0
LINE
  5
20D3
  8
035
 62
     3
 10
-115.103212642782
 20
5.6619217646532229
 30
0.0
 11
-115.63118676173841
 21
6.1898958836096174
 31
0.0
  0
LINE
  5
20D4
  8
035
 62
     3
 10
-113.11943676931431
 20
3.296308229344779
 30
0.0
 11
-114.3122739459492
 21
4.4891454059797384
 31
0.0
  0
LINE
  5
20D5
  8
035
 62
     3
 10
-115.4850503046227
 20
5.6619217646532229
 30
0.0
 11
-116.0130244235791
 21
6.1898958836096174
 31
0.0
  0
LINE
  5
20D6
  8
035
 62
     3
 10
-113.6532843618162
 20
3.4483181600059392
 30
0.0
 11
-114.38156406746209
 21
4.1765978656518854
 31
0.0
  0
LINE
  5
20D7
  8
035
 62
     3
 10
-115.86688796646339
 20
5.6619217646532229
 30
0.0
 11
-116.3948620854198
 21
6.1898958836096174
 31
0.0
  0
LINE
  5
20D8
  8
035
 62
     3
 10
-115.44210707597119
 20
4.8553032123202771
 30
0.0
 11
-115.4602149773569
 21
4.8734111137059379
 31
0.0
  0
LINE
  5
20D9
  8
035
 62
     3
 10
-116.2487256283041
 20
5.6619217646532229
 30
0.0
 11
-116.77669974726059
 21
6.1898958836096174
 31
0.0
  0
LINE
  5
20DA
  8
035
 62
     3
 10
-115.5113971974841
 20
4.542755671992424
 30
0.0
 11
-115.8420526391976
 21
4.8734111137059379
 31
0.0
  0
LINE
  5
20DB
  8
035
 62
     3
 10
-116.63056329014491
 20
5.6619217646532229
 30
0.0
 11
-117.1585374091013
 21
6.1898958836096174
 31
0.0
  0
LINE
  5
20DC
  8
035
 62
     3
 10
-115.87591618208199
 20
4.5254369947496196
 30
0.0
 11
-116.2238903010383
 21
4.8734111137059379
 31
0.0
  0
LINE
  5
20DD
  8
035
 62
     3
 10
-117.0124009519857
 20
5.6619217646532229
 30
0.0
 11
-117.5403750709421
 21
6.1898958836096174
 31
0.0
  0
LINE
  5
20DE
  8
035
 62
     3
 10
-115.4212267742799
 20
3.6889099251068131
 30
0.0
 11
-115.4692431929753
 21
3.736926343802164
 31
0.0
  0
LINE
  5
20DF
  8
035
 62
     3
 10
-117.3942386138264
 20
5.6619217646532229
 30
0.0
 11
-117.9222127327828
 21
6.1898958836096174
 31
0.0
  0
LINE
  5
20E0
  8
035
 62
     3
 10
-116.2577538439228
 20
4.5254369947496196
 30
0.0
 11
-116.6057279628791
 21
4.8734111137059379
 31
0.0
  0
LINE
  5
20E1
  8
035
 62
     3
 10
-115.49051689579279
 20
3.3763623847789761
 30
0.0
 11
-115.8510808548161
 21
3.736926343802164
 31
0.0
  0
LINE
  5
20E2
  8
035
 62
     3
 10
-117.77607627566709
 20
5.6619217646532229
 30
0.0
 11
-118.3040503946235
 21
6.1898958836096174
 31
0.0
  0
LINE
  5
20E3
  8
035
 62
     3
 10
-116.63959150576351
 20
4.5254369947496196
 30
0.0
 11
-116.98756562471981
 21
4.8734111137059379
 31
0.0
  0
LINE
  5
20E4
  8
035
 62
     3
 10
-115.7049443977005
 20
3.2089522248458899
 30
0.0
 11
-116.2329185166568
 21
3.736926343802164
 31
0.0
  0
LINE
  5
20E5
  8
035
 62
     3
 10
-118.1579139375078
 20
5.6619217646532061
 30
0.0
 11
-118.68588805646419
 21
6.1898958836096174
 31
0.0
  0
LINE
  5
20E6
  8
035
 62
     3
 10
-117.0214291676042
 20
4.5254369947496196
 30
0.0
 11
-117.3694032865606
 21
4.8734111137059379
 31
0.0
  0
LINE
  5
20E7
  8
035
 62
     3
 10
-116.08678205954121
 20
3.2089522248458899
 30
0.0
 11
-116.6147561784975
 21
3.736926343802164
 31
0.0
  0
LINE
  5
20E8
  8
035
 62
     3
 10
-118.52660557773071
 20
5.6487757430353627
 30
0.0
 11
-119.067725718305
 21
6.1898958836096174
 31
0.0
  0
LINE
  5
20E9
  8
035
 62
     3
 10
-117.403266829445
 20
4.5254369947496196
 30
0.0
 11
-117.7512409484013
 21
4.8734111137059379
 31
0.0
  0
LINE
  5
20EA
  8
035
 62
     3
 10
-116.468619721382
 20
3.2089522248458899
 30
0.0
 11
-116.99659384033821
 21
3.736926343802164
 31
0.0
  0
LINE
  5
20EB
  8
035
 62
     3
 10
-118.5958956992436
 20
5.3362282027075114
 30
0.0
 11
-119.4495633801457
 21
6.1898958836096174
 31
0.0
  0
LINE
  5
20EC
  8
035
 62
     3
 10
-117.78510449128569
 20
4.5254369947496196
 30
0.0
 11
-118.13307861024199
 21
4.8734111137059379
 31
0.0
  0
LINE
  5
20ED
  8
035
 62
     3
 10
-116.8504573832227
 20
3.2089522248458899
 30
0.0
 11
-117.378431502179
 21
3.736926343802164
 31
0.0
  0
LINE
  5
20EE
  8
035
 62
     3
 10
-118.66518582075661
 20
5.0236806623796921
 30
0.0
 11
-119.8314010419865
 21
6.1898958836096174
 31
0.0
  0
LINE
  5
20EF
  8
035
 62
     3
 10
-118.1669421531264
 20
4.5254369947496196
 30
0.0
 11
-118.5149162720827
 21
4.8734111137059379
 31
0.0
  0
LINE
  5
20F0
  8
035
 62
     3
 10
-117.2322950450634
 20
3.2089522248458899
 30
0.0
 11
-117.7602691640197
 21
3.736926343802164
 31
0.0
  0
LINE
  5
20F1
  8
035
 62
     3
 10
-118.5487798149672
 20
4.5254369947496196
 30
0.0
 11
-120.2132387038272
 21
6.1898958836096174
 31
0.0
  0
LINE
  5
20F2
  8
035
 62
     3
 10
-117.6141327069041
 20
3.2089522248458899
 30
0.0
 11
-118.14210682586049
 21
3.736926343802164
 31
0.0
  0
LINE
  5
20F3
  8
035
 62
     3
 10
-118.80376606378221
 20
4.3985855817239177
 30
0.0
 11
-120.4812709494682
 21
6.0760904674099123
 31
0.0
  0
LINE
  5
20F4
  8
035
 62
     3
 10
-117.99597036874491
 20
3.2089522248458899
 30
0.0
 11
-118.5239444877012
 21
3.736926343802164
 31
0.0
  0
LINE
  5
20F5
  8
035
 62
     3
 10
-118.8730561852951
 20
4.086038041396014
 30
0.0
 11
-120.550561070981
 21
5.7635429270820424
 31
0.0
  0
LINE
  5
20F6
  8
035
 62
     3
 10
-118.3778080305857
 20
3.2089522248458899
 30
0.0
 11
-118.90578214954191
 21
3.736926343802164
 31
0.0
  0
LINE
  5
20F7
  8
035
 62
     3
 10
-118.94234630680791
 20
3.7734905010680762
 30
0.0
 11
-120.6198511924939
 21
5.4509953867541379
 31
0.0
  0
LINE
  5
20F8
  8
035
 62
     3
 10
-118.7596456924264
 20
3.2089522248458899
 30
0.0
 11
-120.6891413140068
 21
5.1384478464262848
 31
0.0
  0
LINE
  5
20F9
  8
035
 62
     3
 10
-121.52789375684981
 20
5.9772002892693497
 30
0.0
 11
-121.7405893511902
 21
6.1898958836096174
 31
0.0
  0
LINE
  5
20FA
  8
035
 62
     3
 10
-119.14148335426709
 20
3.2089522248458899
 30
0.0
 11
-120.7584314355197
 21
4.8259003060984149
 31
0.0
  0
LINE
  5
20FB
  8
035
 62
     3
 10
-121.5971838783627
 20
5.6646527489414797
 30
0.0
 11
-122.1224270130309
 21
6.1898958836096174
 31
0.0
  0
LINE
  5
20FC
  8
035
 62
     3
 10
-119.5233210161078
 20
3.2089522248458899
 30
0.0
 11
-120.8277215570325
 21
4.5133527657705619
 31
0.0
  0
LINE
  5
20FD
  8
035
 62
     3
 10
-121.66647399987561
 20
5.3521052086136267
 30
0.0
 11
-122.50426467487161
 21
6.1898958836096174
 31
0.0
  0
LINE
  5
20FE
  8
035
 62
     3
 10
-119.90515867794851
 20
3.2089522248458899
 30
0.0
 11
-120.8970116785454
 21
4.200805225442692
 31
0.0
  0
LINE
  5
20FF
  8
035
 62
     3
 10
-121.7357641213884
 20
5.0395576682857568
 30
0.0
 11
-122.8861023367123
 21
6.1898958836096174
 31
0.0
  0
LINE
  5
2100
  8
035
 62
     3
 10
-120.2869963397893
 20
3.2089522248458899
 30
0.0
 11
-120.9663018000583
 21
3.8882576851147892
 31
0.0
  0
LINE
  5
2101
  8
035
 62
     3
 10
-121.80505424290131
 20
4.72701012795787
 30
0.0
 11
-123.2679399985531
 21
6.1898958836096174
 31
0.0
  0
LINE
  5
2102
  8
035
 62
     3
 10
-120.6688340016301
 20
3.2089522248458899
 30
0.0
 11
-121.0355919215711
 21
3.5757101447869362
 31
0.0
  0
LINE
  5
2103
  8
035
 62
     3
 10
-121.8743443644142
 20
4.4144625876300001
 30
0.0
 11
-123.5518492501002
 21
6.0919674733159939
 31
0.0
  0
LINE
  5
2104
  8
035
 62
     3
 10
-121.05067166347079
 20
3.2089522248458899
 30
0.0
 11
-121.104882043084
 21
3.2631626044590658
 31
0.0
  0
LINE
  5
2105
  8
035
 62
     3
 10
-121.94363448592711
 20
4.1019150473021471
 30
0.0
 11
-123.621139371613
 21
5.7794199329881577
 31
0.0
  0
LINE
  5
2106
  8
035
 62
     3
 10
-122.0129246074399
 20
3.789367506974278
 30
0.0
 11
-123.690429493126
 21
5.4668723926603233
 31
0.0
  0
LINE
  5
2107
  8
035
 62
     3
 10
-122.08221472895281
 20
3.476819966646425
 30
0.0
 11
-123.7597196146388
 21
5.1543248523324703
 31
0.0
  0
LINE
  5
2108
  8
035
 62
     3
 10
-122.196184648993
 20
3.2089522248458731
 30
0.0
 11
-124.0004708074383
 21
5.0132383832911858
 31
0.0
  0
LINE
  5
2109
  8
035
 62
     3
 10
-122.5780223108337
 20
3.2089522248458731
 30
0.0
 11
-125.28893638553259
 21
5.9198662995447453
 31
0.0
  0
LINE
  5
210A
  8
035
 62
     3
 10
-122.95985997267439
 20
3.2089522248458731
 30
0.0
 11
-125.9408036314382
 21
6.1898958836096174
 31
0.0
  0
LINE
  5
210B
  8
035
 62
     3
 10
-123.3416976345152
 20
3.2089522248458731
 30
0.0
 11
-126.32264129327891
 21
6.1898958836096174
 31
0.0
  0
LINE
  5
210C
  8
035
 62
     3
 10
-123.72353529635591
 20
3.2089522248458731
 30
0.0
 11
-126.7044789551197
 21
6.1898958836096174
 31
0.0
  0
LINE
  5
210D
  8
035
 62
     3
 10
-124.1053729581967
 20
3.2089522248458731
 30
0.0
 11
-127.0863166169604
 21
6.1898958836096174
 31
0.0
  0
LINE
  5
210E
  8
035
 62
     3
 10
-124.6372375678725
 20
3.3589791726809062
 30
0.0
 11
-127.46815427880119
 21
6.1898958836096174
 31
0.0
  0
LINE
  5
210F
  8
035
 62
     3
 10
-126.37279658281091
 20
4.7127005257787093
 30
0.0
 11
-127.8499919406419
 21
6.1898958836096174
 31
0.0
  0
LINE
  5
2110
  8
035
 62
     3
 10
-126.4420867043238
 20
4.4001529854508563
 30
0.0
 11
-128.1195915900098
 21
6.0776578711368661
 31
0.0
  0
LINE
  5
2111
  8
035
 62
     3
 10
-126.51137682583671
 20
4.0876054451230033
 30
0.0
 11
-128.1888817115227
 21
5.765110330808997
 31
0.0
  0
LINE
  5
2112
  8
035
 62
     3
 10
-126.5806669473496
 20
3.7750579047951498
 30
0.0
 11
-128.25817183303559
 21
5.452562790481144
 31
0.0
  0
LINE
  5
2113
  8
035
 62
     3
 10
-126.64995706886251
 20
3.462510364467263
 30
0.0
 11
-128.32746195454851
 21
5.1400152501532403
 31
0.0
  0
LINE
  5
2114
  8
035
 62
     3
 10
-126.77823659108179
 20
3.2089522248458562
 30
0.0
 11
-128.39675207606129
 21
4.8274677098253873
 31
0.0
  0
LINE
  5
2115
  8
035
 62
     3
 10
-127.1600742529226
 20
3.2089522248458562
 30
0.0
 11
-128.46604219757421
 21
4.5149201694975174
 31
0.0
  0
LINE
  5
2116
  8
035
 62
     3
 10
-127.5419119147633
 20
3.2089522248458562
 30
0.0
 11
-128.53533231908699
 21
4.2023726291696644
 31
0.0
  0
LINE
  5
2117
  8
035
 62
     3
 10
-127.923749576604
 20
3.2089522248458562
 30
0.0
 11
-128.60462244059991
 21
3.889825088841794
 31
0.0
  0
LINE
  5
2118
  8
035
 62
     3
 10
-128.30558723844479
 20
3.2089522248458562
 30
0.0
 11
-128.6739125621128
 21
3.5772775485139068
 31
0.0
  0
LINE
  5
2119
  8
035
 62
     3
 10
-128.68742490028549
 20
3.2089522248458562
 30
0.0
 11
-128.7432026836257
 21
3.2647300081860369
 31
0.0
  0
LINE
  5
211A
  8
035
 62
     3
 10
-96.231223643822929
 20
3.2089522248458051
 30
0.0
 11
-96.940841439738634
 21
3.9185700207615151
 31
0.0
  0
LINE
  5
211B
  8
035
 62
     3
 10
-98.605971734661182
 20
5.5837003156840259
 30
0.0
 11
-99.212167302586721
 21
6.1898958836096334
 31
0.0
  0
LINE
  5
211C
  8
035
 62
     3
 10
-97.342768537186572
 20
4.3204971182094676
 30
0.0
 11
-97.690742656142945
 21
4.6684712371658197
 31
0.0
  0
LINE
  5
211D
  8
035
 62
     3
 10
-95.849385981982195
 20
3.2089522248458051
 30
0.0
 11
-97.308904994302225
 21
4.6684712371658197
 31
0.0
  0
LINE
  5
211E
  8
035
 62
     3
 10
-98.302355521789593
 20
5.6619217646532229
 30
0.0
 11
-98.830329640746015
 21
6.1898958836096334
 31
0.0
  0
LINE
  5
211F
  8
035
 62
     3
 10
-95.467548320141489
 20
3.2089522248458051
 30
0.0
 11
-96.984585575061033
 21
4.7259894797653912
 31
0.0
  0
LINE
  5
2120
  8
035
 62
     3
 10
-97.920517859948887
 20
5.6619217646532229
 30
0.0
 11
-98.448491978905267
 21
6.1898958836096334
 31
0.0
  0
LINE
  5
2121
  8
035
 62
     3
 10
-95.085710658300727
 20
3.2089522248458051
 30
0.0
 11
-96.740957636544096
 21
4.8641992030891661
 31
0.0
  0
LINE
  5
2122
  8
035
 62
     3
 10
-97.538680198108111
 20
5.6619217646532229
 30
0.0
 11
-98.066654317064518
 21
6.1898958836096334
 31
0.0
  0
LINE
  5
2123
  8
035
 62
     3
 10
-94.914728699623311
 20
3.4198079280091429
 30
0.0
 11
-96.575214785996877
 21
5.0802940143826918
 31
0.0
  0
LINE
  5
2124
  8
035
 62
     3
 10
-97.156842536267405
 20
5.6619217646532229
 30
0.0
 11
-97.684816655223784
 21
6.1898958836096334
 31
0.0
  0
LINE
  5
2125
  8
035
 62
     3
 10
-94.900068663499383
 20
3.7869855537259429
 30
0.0
 11
-96.590830025266996
 21
5.4777469154935572
 31
0.0
  0
LINE
  5
2126
  8
035
 62
     3
 10
-96.738496525139198
 20
5.6254134153657516
 30
0.0
 11
-97.302978993383064
 21
6.1898958836096334
 31
0.0
  0
LINE
  5
2127
  8
035
 62
     3
 10
-94.875113040297464
 20
4.1438675923647299
 30
0.0
 11
-96.921141331542316
 21
6.1898958836096334
 31
0.0
  0
LINE
  5
2128
  8
035
 62
     3
 10
-93.558360010937804
 20
3.2089522248458051
 30
0.0
 11
-93.850928447779424
 21
3.5015206616874219
 31
0.0
  0
LINE
  5
2129
  8
035
 62
     3
 10
-94.944496635760501
 20
4.5950888496684943
 30
0.0
 11
-96.53930366970161
 21
6.1898958836096334
 31
0.0
  0
LINE
  5
212A
  8
035
 62
     3
 10
-93.176522349097041
 20
3.2089522248458051
 30
0.0
 11
-93.781638326266517
 21
3.8140682020153092
 31
0.0
  0
LINE
  5
212B
  8
035
 62
     3
 10
-94.710395049216615
 20
4.7428249249653636
 30
0.0
 11
-96.157466007860805
 21
6.1898958836096334
 31
0.0
  0
LINE
  5
212C
  8
035
 62
     3
 10
-92.794684687256279
 20
3.2089522248458051
 30
0.0
 11
-93.712348204753653
 21
4.1266157423431791
 31
0.0
  0
LINE
  5
212D
  8
035
 62
     3
 10
-94.508091781483131
 20
4.9223593190726449
 30
0.0
 11
-95.775628346020099
 21
6.1898958836096334
 31
0.0
  0
LINE
  5
212E
  8
035
 62
     3
 10
-92.412847025415573
 20
3.2089522248458051
 30
0.0
 11
-93.643058083240817
 21
4.4391632826710321
 31
0.0
  0
LINE
  5
212F
  8
035
 62
     3
 10
-94.346020451787695
 20
5.1421256512179214
 30
0.0
 11
-95.393790684179379
 21
6.1898958836096334
 31
0.0
  0
LINE
  5
2130
  8
035
 62
     3
 10
-92.031009363574839
 20
3.2089522248458051
 30
0.0
 11
-93.573767961727924
 21
4.7517108229988851
 31
0.0
  0
LINE
  5
2131
  8
035
 62
     3
 10
-94.24335226951132
 20
5.4212951307822923
 30
0.0
 11
-94.981921626520815
 21
6.159864487791789
 31
0.0
  0
LINE
  5
2132
  8
035
 62
     3
 10
-91.826972954529055
 20
3.3867534776407431
 30
0.0
 11
-93.50447784021506
 21
5.0642583633267382
 31
0.0
  0
LINE
  5
2133
  8
035
 62
     3
 10
-91.757682833016204
 20
3.6993010179686481
 30
0.0
 11
-93.435187718702167
 21
5.376805903654641
 31
0.0
  0
LINE
  5
2134
  8
035
 62
     3
 10
-91.68839271150334
 20
4.0118485582965011
 30
0.0
 11
-93.365897597189317
 21
5.6893534439824931
 31
0.0
  0
LINE
  5
2135
  8
035
 62
     3
 10
-90.503658716211859
 20
3.2089522248457878
 30
0.0
 11
-90.627849702994155
 21
3.3331432116281259
 31
0.0
  0
LINE
  5
2136
  8
035
 62
     3
 10
-91.619102589990447
 20
4.324396098624371
 30
0.0
 11
-93.296607475676424
 21
6.001900984310347
 31
0.0
  0
LINE
  5
2137
  8
035
 62
     3
 10
-90.121821054371168
 20
3.2089522248457878
 30
0.0
 11
-90.558559581481319
 21
3.6456907519559789
 31
0.0
  0
LINE
  5
2138
  8
035
 62
     3
 10
-91.549812468477583
 20
4.6369436389522232
 30
0.0
 11
-93.102764713134974
 21
6.1898958836095481
 31
0.0
  0
LINE
  5
2139
  8
035
 62
     3
 10
-89.739983392530462
 20
3.2089522248457878
 30
0.0
 11
-90.489269459968455
 21
3.9582382922838319
 31
0.0
  0
LINE
  5
213A
  8
035
 62
     3
 10
-91.480522346964733
 20
4.9494911792800762
 30
0.0
 11
-92.720927051294225
 21
6.1898958836095481
 31
0.0
  0
LINE
  5
213B
  8
035
 62
     3
 10
-89.358145730689671
 20
3.2089522248457878
 30
0.0
 11
-90.419979338455548
 21
4.2707858326117192
 31
0.0
  0
LINE
  5
213C
  8
035
 62
     3
 10
-91.411232225451869
 20
5.2620387196079799
 30
0.0
 11
-92.339089389453449
 21
6.1898958836095481
 31
0.0
  0
LINE
  5
213D
  8
035
 62
     3
 10
-88.976308068848937
 20
3.2089522248457878
 30
0.0
 11
-90.350689216942698
 21
4.5833333729395722
 31
0.0
  0
LINE
  5
213E
  8
035
 62
     3
 10
-91.341942103938976
 20
5.574586259935832
 30
0.0
 11
-91.957251727612729
 21
6.1898958836095481
 31
0.0
  0
LINE
  5
213F
  8
035
 62
     3
 10
-88.68014443182048
 20
3.2946262496580712
 30
0.0
 11
-90.281399095429805
 21
4.8958809132674244
 31
0.0
  0
LINE
  5
2140
  8
035
 62
     3
 10
-91.272651982426112
 20
5.8871338002637019
 30
0.0
 11
-91.57541406577198
 21
6.1898958836095481
 31
0.0
  0
LINE
  5
2141
  8
035
 62
     3
 10
-88.610854310307616
 20
3.6071737899859411
 30
0.0
 11
-90.212108973916955
 21
5.2084284535952774
 31
0.0
  0
LINE
  5
2142
  8
035
 62
     3
 10
-88.54156418879478
 20
3.9197213303138279
 30
0.0
 11
-90.142818852404048
 21
5.5209759939231304
 31
0.0
  0
LINE
  5
2143
  8
035
 62
     3
 10
-88.295705358999641
 20
4.0557001623594617
 30
0.0
 11
-90.073528730891198
 21
5.8335235342510341
 31
0.0
  0
LINE
  5
2144
  8
035
 62
     3
 10
-88.027961661601765
 20
4.1697941268023184
 30
0.0
 11
-90.004238609378305
 21
6.1460710745788871
 31
0.0
  0
LINE
  5
2145
  8
035
 62
     3
 10
-87.760217964203889
 20
4.2838880912451742
 30
0.0
 11
-89.666225756568281
 21
6.1898958836095819
 31
0.0
  0
LINE
  5
2146
  8
035
 62
     3
 10
-86.303444435963826
 20
3.2089522248458051
 30
0.0
 11
-89.284388094727575
 21
6.1898958836095819
 31
0.0
  0
LINE
  5
2147
  8
035
 62
     3
 10
-85.921606774123106
 20
3.2089522248458051
 30
0.0
 11
-88.004104239355826
 21
5.2914496900785446
 31
0.0
  0
LINE
  5
2148
  8
035
 62
     3
 10
-88.195113581230316
 20
5.4824590319530406
 30
0.0
 11
-88.902550432886841
 21
6.1898958836095819
 31
0.0
  0
LINE
  5
2149
  8
035
 62
     3
 10
-85.539769112282315
 20
3.2089522248458051
 30
0.0
 11
-87.736360541957964
 21
5.4055436545214182
 31
0.0
  0
LINE
  5
214A
  8
035
 62
     3
 10
-88.125823459717466
 20
5.7950065722809452
 30
0.0
 11
-88.520712771046078
 21
6.1898958836095819
 31
0.0
  0
LINE
  5
214B
  8
035
 62
     3
 10
-85.157931450441581
 20
3.2089522248458051
 30
0.0
 11
-87.468616844560074
 21
5.5196376189642899
 31
0.0
  0
LINE
  5
214C
  8
035
 62
     3
 10
-88.056533338204616
 20
6.1075541126088151
 30
0.0
 11
-88.138875109205344
 21
6.1898958836095819
 31
0.0
  0
LINE
  5
214D
  8
035
 62
     3
 10
-84.776093788600846
 20
3.2089522248458051
 30
0.0
 11
-87.200873147162241
 21
5.6337315834071626
 31
0.0
  0
LINE
  5
214E
  8
035
 62
     3
 10
-84.394256126760155
 20
3.2089522248458051
 30
0.0
 11
-86.933129449764394
 21
5.7478255478500362
 31
0.0
  0
LINE
  5
214F
  8
035
 62
     3
 10
-84.012418464919421
 20
3.2089522248458051
 30
0.0
 11
-86.665385752366532
 21
5.861919512292908
 31
0.0
  0
LINE
  5
2150
  8
035
 62
     3
 10
-85.618268385021025
 20
5.1966398067881547
 30
0.0
 11
-86.397642054968628
 21
5.9760134767357806
 31
0.0
  0
LINE
  5
2151
  8
035
 62
     3
 10
-85.350524687623135
 20
5.3107337712310283
 30
0.0
 11
-86.129898357570795
 21
6.0901074411786542
 31
0.0
  0
LINE
  5
2152
  8
035
 62
     3
 10
-85.082780990225316
 20
5.4248277356738832
 30
0.0
 11
-85.847849138160925
 21
6.189895883609565
 31
0.0
  0
LINE
  5
2153
  8
035
 62
     3
 10
-84.815037292827441
 20
5.538921700116755
 30
0.0
 11
-85.46601147632019
 21
6.189895883609565
 31
0.0
  0
LINE
  5
2154
  8
035
 62
     3
 10
-84.547293595429551
 20
5.6530156645596117
 30
0.0
 11
-85.084173814479456
 21
6.189895883609565
 31
0.0
  0
LINE
  5
2155
  8
035
 62
     3
 10
-84.279549898031675
 20
5.7671096290025012
 30
0.0
 11
-84.702336152638694
 21
6.189895883609565
 31
0.0
  0
LINE
  5
2156
  8
035
 62
     3
 10
-84.011806200633814
 20
5.881203593445357
 30
0.0
 11
-84.320498490797988
 21
6.189895883609565
 31
0.0
  0
LINE
  5
2157
  8
035
 62
     3
 10
-83.744062503235924
 20
5.9952975578882297
 30
0.0
 11
-83.938660828957254
 21
6.189895883609565
 31
0.0
  0
LINE
  5
2158
  8
035
 62
     3
 10
-83.476318805838105
 20
6.1093915223310846
 30
0.0
 11
-83.556823167116534
 21
6.189895883609565
 31
0.0
  0
ENDBLK
  5
2159
  8
0
  0
BLOCK
  8
0
  2
ZKOPF-REAN
 70
     2
 10
0.0
 20
0.0
 30
0.0
  3
ZKOPF-REAN
  1

  0
TEXT
  5
B782
  8
035
 10
517.65315784783218
 20
512.84858999021753
 30
0.0
 40
3.5
  1
  
 41
0.7
 51
15.0
  0
TEXT
  5
B783
  8
035
 10
517.65315784783218
 20
512.84858999021753
 30
0.0
 40
3.5
  1
  
 41
0.7
 51
15.0
  0
TEXT
  5
B784
  8
035
 10
517.65315784783218
 20
512.84858999021753
 30
0.0
 40
3.5
  1
  
 41
0.7
 51
15.0
  0
TEXT
  5
B785
  8
035
 10
517.65315784783218
 20
512.84858999021753
 30
0.0
 40
3.5
  1
  
 41
0.7
 51
15.0
  0
TEXT
  5
B786
  8
035
 10
517.65315784783218
 20
512.84858999021753
 30
0.0
 40
3.5
  1
  
 41
0.7
 51
15.0
  0
TEXT
  5
B787
  8
035
 10
517.65315784783218
 20
512.84858999021753
 30
0.0
 40
3.5
  1
  
 41
0.7
 51
15.0
  0
TEXT
  5
B788
  8
035
 10
517.65315784783218
 20
512.84858999021753
 30
0.0
 40
3.5
  1
  
 41
0.7
 51
15.0
  0
TEXT
  5
B789
  8
035
 10
517.65315784783218
 20
512.84858999021753
 30
0.0
 40
3.5
  1
  
 41
0.7
 51
15.0
  0
TEXT
  5
B78A
  8
035
 10
517.65315784783218
 20
512.84858999021753
 30
0.0
 40
3.5
  1
  
 41
0.7
 51
15.0
  0
TEXT
  5
B78B
  8
035
 10
517.65315784783218
 20
512.84858999021753
 30
0.0
 40
3.5
  1
  
 41
0.7
 51
15.0
  0
TEXT
  5
B78C
  8
035
 10
517.65315784783218
 20
512.84858999021753
 30
0.0
 40
3.5
  1
  
 41
0.7
 51
15.0
  0
TEXT
  5
B78D
  8
035
 10
517.65315784783218
 20
512.84858999021753
 30
0.0
 40
3.5
  1
  
 41
0.7
 51
15.0
  0
ATTDEF
  5
B78E
  8
0
 62
     4
 10
-15.166666666666661
 20
37.0
 30
0.0
 40
2.5
  1
Battlogg
  7
SCRIPTS
 72
     1
 11
-8.5
 21
37.0
 31
0.0
  3
Name des Konstrukteurs ?
  2
NAME
 70
     0
  0
POLYLINE
  5
B78F
  8
0
 62
     2
 66
     1
 10
0.0
 20
0.0
 30
0.0
  0
VERTEX
  5
BA5F
  8
0
 62
     2
 10
-51.0
 20
0.0
 30
0.0
  0
VERTEX
  5
BA60
  8
0
 62
     2
 10
-51.0
 20
46.0
 30
0.0
  0
SEQEND
  5
BA61
  8
0
 62
     2
  0
POLYLINE
  5
B790
  8
0
 62
     2
 66
     1
 10
0.0
 20
0.0
 30
0.0
  0
VERTEX
  5
BA62
  8
0
 62
     2
 10
-17.0
 20
9.0
 30
0.0
  0
VERTEX
  5
BA63
  8
0
 62
     2
 10
-17.0
 20
46.0
 30
0.0
  0
SEQEND
  5
BA64
  8
0
 62
     2
  0
POLYLINE
  5
B791
  8
0
 62
     2
 66
     1
 10
0.0
 20
0.0
 30
0.0
  0
VERTEX
  5
BA65
  8
0
 62
     2
 10
-32.0
 20
26.0
 30
0.0
  0
VERTEX
  5
BA66
  8
0
 62
     2
 10
-32.0
 20
46.0
 30
0.0
  0
SEQEND
  5
BA67
  8
0
 62
     2
  0
POLYLINE
  5
B792
  8
0
 62
     2
 66
     1
 10
0.0
 20
0.0
 30
0.0
  0
VERTEX
  5
BA68
  8
0
 62
     2
 10
-133.0
 20
41.0
 30
0.0
  0
VERTEX
  5
BA69
  8
0
 62
     2
 10
-92.0
 20
41.0
 30
0.0
  0
SEQEND
  5
BA6A
  8
0
 62
     2
  0
POLYLINE
  5
B793
  8
0
 62
     2
 66
     1
 10
0.0
 20
0.0
 30
0.0
  0
VERTEX
  5
BA6B
  8
0
 62
     2
 10
-145.0
 20
0.0
 30
0.0
  0
VERTEX
  5
BA6C
  8
0
 62
     2
 10
-145.0
 20
46.0
 30
0.0
  0
SEQEND
  5
BA6D
  8
0
 62
     2
  0
POLYLINE
  5
B794
  8
0
 62
     2
 66
     1
 10
0.0
 20
0.0
 30
0.0
  0
VERTEX
  5
BA6E
  8
0
 62
     2
 10
-158.0
 20
0.0
 30
0.0
  0
VERTEX
  5
BA6F
  8
0
 62
     2
 10
-158.0
 20
46.0
 30
0.0
  0
SEQEND
  5
BA70
  8
0
 62
     2
  0
LINE
  5
B795
  8
0
 62
     2
 10
-200.0
 20
6.0
 30
0.0
 11
-133.0
 21
6.0
 31
0.0
  0
POLYLINE
  5
B796
  8
0
 62
     4
 66
     1
 10
0.0
 20
0.0
 30
0.0
  0
VERTEX
  5
BA71
  8
0
 62
     4
 10
-200.0
 20
11.0
 30
0.0
  0
VERTEX
  5
BA72
  8
0
 62
     4
 10
-133.0
 20
11.0
 30
0.0
  0
SEQEND
  5
BA73
  8
0
 62
     4
  0
POLYLINE
  5
B797
  8
0
 62
     4
 66
     1
 10
0.0
 20
0.0
 30
0.0
  0
VERTEX
  5
BA74
  8
0
 62
     4
 10
-200.0
 20
16.0
 30
0.0
  0
VERTEX
  5
BA75
  8
0
 62
     4
 10
-133.0
 20
16.0
 30
0.0
  0
SEQEND
  5
BA76
  8
0
 62
     4
  0
POLYLINE
  5
B798
  8
0
 62
     4
 66
     1
 10
0.0
 20
0.0
 30
0.0
  0
VERTEX
  5
BA77
  8
0
 62
     4
 10
-200.0
 20
21.0
 30
0.0
  0
VERTEX
  5
BA78
  8
0
 62
     4
 10
-133.0
 20
21.0
 30
0.0
  0
SEQEND
  5
BA79
  8
0
 62
     4
  0
POLYLINE
  5
B799
  8
0
 62
     4
 66
     1
 10
0.0
 20
0.0
 30
0.0
  0
VERTEX
  5
BA7A
  8
0
 62
     4
 10
-200.0
 20
26.0
 30
0.0
  0
VERTEX
  5
BA7B
  8
0
 62
     4
 10
-133.0
 20
26.0
 30
0.0
  0
SEQEND
  5
BA7C
  8
0
 62
     4
  0
POLYLINE
  5
B79A
  8
0
 62
     4
 66
     1
 10
0.0
 20
0.0
 30
0.0
  0
VERTEX
  5
BA7D
  8
0
 62
     4
 10
-200.0
 20
31.0
 30
0.0
  0
VERTEX
  5
BA7E
  8
0
 62
     4
 10
-133.0
 20
31.0
 30
0.0
  0
SEQEND
  5
BA7F
  8
0
 62
     4
  0
POLYLINE
  5
B79B
  8
0
 62
     4
 66
     1
 10
0.0
 20
0.0
 30
0.0
  0
VERTEX
  5
BA80
  8
0
 62
     4
 10
-200.0
 20
36.0
 30
0.0
  0
VERTEX
  5
BA81
  8
0
 62
     4
 10
-133.0
 20
36.0
 30
0.0
  0
SEQEND
  5
BA82
  8
0
 62
     4
  0
POLYLINE
  5
B79C
  8
0
 62
     4
 66
     1
 10
0.0
 20
0.0
 30
0.0
  0
VERTEX
  5
BA83
  8
0
 62
     4
 10
-200.0
 20
41.0
 30
0.0
  0
VERTEX
  5
BA84
  8
0
 62
     4
 10
-133.0
 20
41.0
 30
0.0
  0
SEQEND
  5
BA85
  8
0
 62
     4
  0
TEXT
  5
B79D
  8
0
 62
     4
 10
-50.0
 20
6.0
 30
0.0
 40
1.5
  1
Zeichn. Nr.
 51
15.0
  0
TEXT
  5
B79E
  8
0
 62
     4
 10
-50.0
 20
23.0
 30
0.0
 40
1.5
  1
Ersetzt durch:         Blatt
 51
15.0
  0
TEXT
  5
B79F
  8
0
 62
     4
 10
-50.0
 20
38.0
 30
0.0
 40
1.5
  1
Gezeichnet
 51
15.0
  0
TEXT
  5
B7A0
  8
0
 62
     4
 10
-50.0
 20
27.0
 30
0.0
 40
1.5
  1
Gesehen
 51
15.0
  0
TEXT
  5
B7A1
  8
0
 62
     4
 10
-31.0
 20
42.0
 30
0.0
 40
1.5
  1
Datum     Name
 51
15.0
  0
TEXT
  5
B7A2
  8
0
 62
     4
 10
-91.0
 20
42.0
 30
0.0
 40
1.5
  1
Werkstoff:      Massstab:
 51
15.0
  0
TEXT
  5
B7A3
  8
0
 62
     4
 10
-132.0
 20
23.0
 30
0.0
 40
1.5
  1
Benennung:
 51
15.0
  0
LINE
  5
B7A4
  8
0
 62
     2
 10
-133.0
 20
33.0
 30
0.0
 11
-92.0
 21
33.0
 31
0.0
  0
TEXT
  5
B7A5
  8
0
 62
     4
 10
-132.0
 20
39.0
 30
0.0
 40
1.5
  1
*)Lieferant darf ohne 
 51
15.0
  0
TEXT
  5
B7A6
  8
0
 62
     4
 10
-132.0
 20
36.5
 30
0.0
 40
1.5
  1
 Ruecksprache nicht 
 51
15.0
  0
TEXT
  5
B7A7
  8
0
 62
     4
 10
-132.0
 20
34.0
 30
0.0
 40
1.5
  1
 geaendert werden
 51
15.0
  0
TEXT
  5
B7A8
  8
0
 62
     4
 10
-132.0
 20
30.0
 30
0.0
 40
1.5
  1
Zeichnung urheberrechtlich
 51
15.0
  0
TEXT
  5
B7A9
  8
0
 62
     4
 10
-132.0
 20
27.5
 30
0.0
 40
1.5
  1
geschuetzt (DIN 34) (C)
 51
15.0
  0
TEXT
  5
B7AA
  8
0
 62
     4
 10
-50.0
 20
32.0
 30
0.0
 40
1.5
  1
Geprueft
 51
15.0
  0
TEXT
  5
B7AB
  8
0
 62
     4
 10
-50.0
 20
15.0
 30
0.0
 40
1.5
  1
Ersatz fuer:           von  Blatt
 51
15.0
  0
TEXT
  5
B7AC
  8
0
 62
     4
 10
-197.0
 20
1.0
 30
0.0
 40
1.5
  1
Ind.  Aenderung             Datum    Name
 51
15.0
  0
ATTDEF
  5
B7AD
  8
0
 62
     4
 10
-30.770833333333329
 20
37.0
 30
0.0
 40
2.5
  1
03.11.2004
 41
0.7
 51
15.0
 72
     1
 11
-24.5
 21
37.0
 31
0.0
  3
Datum der Zeichnung ?
  2
DATE
 70
     0
  0
ATTDEF
  5
B7AE
  8
0
 62
     4
 10
-80.5
 20
36.0
 30
0.0
 40
2.5
  1

 41
0.7
 51
15.0
 72
     1
 11
-80.5
 21
36.0
 31
0.0
  3
Aus welchem Werkstoff ?
  2
WERKSTOFF
 70
     0
  0
ATTDEF
  5
B7AF
  8
0
 62
     2
 10
-92.0
 20
12.5
 30
0.0
 40
5.0
  1

 41
0.7
 51
15.0
 72
     1
 11
-92.0
 21
12.5
 31
0.0
  3
Zeichnungsname ?
  2
BENENNUNG
 70
     0
  0
ATTDEF
  5
B7B0
  8
0
 62
     3
 10
-90.265456601878626
 20
21.082191450526931
 30
0.0
 40
3.5
  1
()
 41
0.7
 51
15.0
 72
     1
 11
-89.040456601878617
 21
21.082191450526931
 31
0.0
  3
Zu welchem Produkt ?
  2
TEIL
 70
     0
  0
ATTDEF
  5
B7B1
  8
0
 62
     3
 10
-20.550219082576412
 20
1.9765410165377939
 30
0.0
 40
3.5
  1

 41
0.7
 51
15.0
 72
     1
 11
-20.550219082576412
 21
1.9765410165377939
 31
0.0
  3
Zeichnungsnummer ?
  2
NUMMER
 70
     0
  0
ATTDEF
  5
B7B2
  8
0
 62
     2
 10
-62.89933830414278
 20
34.656056232934532
 30
0.0
 40
5.0
  1
1:1
 41
0.7
 51
15.0
 72
     1
 11
-60.566004970809438
 21
34.656056232934532
 31
0.0
  3
Hauptmassstab:
  2
MASS
 70
     0
  0
ATTDEF
  5
B7B3
  8
0
 62
     3
 10
-60.480700945980033
 20
28.210450539175302
 30
0.0
 40
3.5
  1

 41
0.7
 51
15.0
 72
     1
 11
-60.480700945980033
 21
28.210450539175302
 31
0.0
  3
Nebenmassstab:
  2
MASS2
 70
     0
  0
ATTDEF
  5
B7B4
  8
0
 62
     4
 10
-81.0
 20
29.0
 30
0.0
 40
2.5
  1

 41
0.7
 51
15.0
 72
     1
 11
-81.0
 21
29.0
 31
0.0
  3
Werkstoffzusatz:
  2
TEIL
 70
     0
  0
ATTDEF
  5
B7B5
  8
0
 62
     3
 10
-107.7114519405618
 20
59.004318747429437
 30
0.0
 40
3.5
  1
Freimasstoleranzen %%p0.1
 41
0.7
 51
15.0
  3
Freimasstoleranzen:
  2
TOL
 70
     0
  0
ATTDEF
  5
B7B6
  8
0
 62
     3
 10
-107.7114519405618
 20
54.004318747429437
 30
0.0
 40
3.5
  1
nicht bemasste Radien R=0.2
 41
0.7
 51
15.0
  3
Nicht bemasste Radien:
  2
RADIEN
 70
     0
  0
ATTDEF
  5
B7B7
  8
0
 62
     3
 10
-107.7114519405618
 20
49.004318747429437
 30
0.0
 40
3.5
  1
nicht bemasste Facetten 0.5 x 45%%D
 41
0.7
 51
15.0
  3
nicht bemasste Facetten:
  2
FACETTE
 70
     0
  0
POLYLINE
  5
B7B8
  8
0
 62
     2
 66
     1
 10
0.0
 20
0.0
 30
0.0
  0
VERTEX
  5
BA86
  8
0
 62
     2
 10
-191.0
 20
0.0
 30
0.0
  0
VERTEX
  5
BA87
  8
0
 62
     2
 10
-191.0
 20
46.0
 30
0.0
  0
SEQEND
  5
BA88
  8
0
 62
     2
  0
POLYLINE
  5
B7B9
  8
0
 62
     2
 66
     1
 10
0.0
 20
0.0
 30
0.0
  0
VERTEX
  5
BA89
  8
0
 62
     2
 10
-133.0
 20
0.0
 30
0.0
  0
VERTEX
  5
BA8A
  8
0
 62
     2
 10
-133.0
 20
46.0
 30
0.0
  0
SEQEND
  5
BA8B
  8
0
 62
     2
  0
POLYLINE
  5
B7BA
  8
0
 62
     2
 66
     1
 10
0.0
 20
0.0
 30
0.0
  0
VERTEX
  5
BA8C
  8
0
 62
     2
 10
-92.0
 20
26.0
 30
0.0
  0
VERTEX
  5
BA8D
  8
0
 62
     2
 10
-92.0
 20
46.0
 30
0.0
  0
SEQEND
  5
BA8E
  8
0
 62
     2
  0
POLYLINE
  5
B7BB
  8
0
 62
     2
 66
     1
 10
0.0
 20
0.0
 30
0.0
  0
VERTEX
  5
BA8F
  8
0
 62
     2
 10
-69.0
 20
26.0
 30
0.0
  0
VERTEX
  5
BA90
  8
0
 62
     2
 10
-69.0
 20
46.0
 30
0.0
  0
SEQEND
  5
BA91
  8
0
 62
     2
  0
ATTDEF
  5
B7BC
  8
0
 62
     4
 10
-197.1862672583826
 20
7.0
 30
0.0
 40
2.5
  1

 41
0.7
 51
15.0
  3
Index1:
  2
INDEX1
 70
     0
  0
ATTDEF
  5
B7BD
  8
0
 62
     4
 10
-190.34874260355031
 20
7.0
 30
0.0
 40
2.5
  1

 41
0.7
 51
15.0
  3
Aenderung1:
  2
A1
 70
     0
  0
ATTDEF
  5
B7BE
  8
0
 62
     4
 10
-157.34874260355031
 20
7.0
 30
0.0
 40
2.5
  1

 41
0.7
 51
15.0
  3
Datum1:
  2
DATUM1
 70
     0
  0
ATTDEF
  5
B7BF
  8
0
 62
     4
 10
-144.46499013806701
 20
7.0
 30
0.0
 40
2.5
  1

 41
0.7
 51
15.0
  3
Name1:
  2
NAME1
 70
     0
  0
ATTDEF
  5
B7C0
  8
0
 62
     4
 10
-197.1862672583826
 20
12.0
 30
0.0
 40
2.5
  1

 41
0.7
 51
15.0
  3
Index2:
  2
INDEX2
 70
     0
  0
ATTDEF
  5
B7C1
  8
0
 62
     4
 10
-190.34874260355031
 20
12.0
 30
0.0
 40
2.5
  1

 41
0.7
 51
15.0
  3
Aenderung2:
  2
A2
 70
     0
  0
ATTDEF
  5
B7C2
  8
0
 62
     4
 10
-157.34874260355031
 20
12.0
 30
0.0
 40
2.5
  1

 41
0.7
 51
15.0
  3
Datum2:
  2
DATUM2
 70
     0
  0
ATTDEF
  5
B7C3
  8
0
 62
     4
 10
-144.46499013806701
 20
12.0
 30
0.0
 40
2.5
  1

 41
0.7
 51
15.0
  3
Name2
  2
NAME2
 70
     0
  0
ATTDEF
  5
B7C4
  8
0
 62
     4
 10
-197.1862672583826
 20
17.0
 30
0.0
 40
2.5
  1

 41
0.7
 51
15.0
  3
Index3:
  2
INDEX3
 70
     0
  0
ATTDEF
  5
B7C5
  8
0
 62
     4
 10
-190.34874260355031
 20
17.0
 30
0.0
 40
2.5
  1

 41
0.7
 51
15.0
  3
Aenderung3
  2
A3
 70
     0
  0
ATTDEF
  5
B7C6
  8
0
 62
     4
 10
-157.34874260355031
 20
17.0
 30
0.0
 40
2.5
  1

 41
0.7
 51
15.0
  3
Datum3:
  2
DATUM3
 70
     0
  0
ATTDEF
  5
B7C7
  8
0
 62
     4
 10
-144.46499013806701
 20
17.0
 30
0.0
 40
2.5
  1

 41
0.7
 51
15.0
  3
Name3:
  2
NAME3
 70
     0
  0
ATTDEF
  5
B7C8
  8
0
 62
     4
 10
-197.1862672583826
 20
22.0
 30
0.0
 40
2.5
  1

 41
0.7
 51
15.0
  3
Index4:
  2
INDEX4
 70
     0
  0
ATTDEF
  5
B7C9
  8
0
 62
     4
 10
-190.34874260355031
 20
22.0
 30
0.0
 40
2.5
  1

 41
0.7
 51
15.0
  3
Aenderung4:
  2
A4
 70
     0
  0
ATTDEF
  5
B7CA
  8
0
 62
     4
 10
-157.34874260355031
 20
22.0
 30
0.0
 40
2.5
  1

 41
0.7
 51
15.0
  3
Datum4:
  2
DATUM4
 70
     0
  0
ATTDEF
  5
B7CB
  8
0
 62
     4
 10
-144.46499013806701
 20
22.0
 30
0.0
 40
2.5
  1

 41
0.7
 51
15.0
  3
Name4:
  2
NAME4
 70
     0
  0
ATTDEF
  5
B7CC
  8
0
 62
     4
 10
-197.1862672583826
 20
27.0
 30
0.0
 40
2.5
  1

 41
0.7
 51
15.0
  3
Index5:
  2
INDEX5
 70
     0
  0
ATTDEF
  5
B7CD
  8
0
 62
     4
 10
-190.34874260355031
 20
27.0
 30
0.0
 40
2.5
  1

 41
0.7
 51
15.0
  3
Aenderung5:
  2
A5
 70
     0
  0
ATTDEF
  5
B7CE
  8
0
 62
     4
 10
-157.34874260355031
 20
27.0
 30
0.0
 40
2.5
  1

 41
0.7
 51
15.0
  3
Datum5:
  2
DATUM5
 70
     0
  0
ATTDEF
  5
B7CF
  8
0
 62
     4
 10
-144.46499013806701
 20
27.0
 30
0.0
 40
2.5
  1

 41
0.7
 51
15.0
  3
Name5
  2
NAME5
 70
     0
  0
ATTDEF
  5
B7D0
  8
0
 62
     4
 10
-197.1862672583826
 20
32.0
 30
0.0
 40
2.5
  1

 41
0.7
 51
15.0
  3
Index6:
  2
INDEX6
 70
     0
  0
ATTDEF
  5
B7D1
  8
0
 62
     4
 10
-190.34874260355031
 20
32.0
 30
0.0
 40
2.5
  1

 41
0.7
 51
15.0
  3
Aenderung6:
  2
A6
 70
     0
  0
ATTDEF
  5
B7D2
  8
0
 62
     4
 10
-157.34874260355031
 20
32.0
 30
0.0
 40
2.5
  1

 41
0.7
 51
15.0
  3
Datum6:
  2
DATUM6
 70
     0
  0
ATTDEF
  5
B7D3
  8
0
 62
     4
 10
-144.46499013806701
 20
32.0
 30
0.0
 40
2.5
  1

 41
0.7
 51
15.0
  3
Name6:
  2
NAME6
 70
     0
  0
ATTDEF
  5
B7D4
  8
0
 62
     4
 10
-197.1862672583826
 20
37.0
 30
0.0
 40
2.5
  1

 41
0.7
 51
15.0
  3
Index7:
  2
INDEX7
 70
     0
  0
ATTDEF
  5
B7D5
  8
0
 62
     4
 10
-190.34874260355031
 20
37.0
 30
0.0
 40
2.5
  1

 41
0.7
 51
15.0
  3
Aenderung7:
  2
A7
 70
     0
  0
ATTDEF
  5
B7D6
  8
0
 62
     4
 10
-157.34874260355031
 20
37.0
 30
0.0
 40
2.5
  1

 41
0.7
 51
15.0
  3
Datum7:
  2
DATUM7
 70
     0
  0
ATTDEF
  5
B7D7
  8
0
 62
     4
 10
-144.46499013806701
 20
37.0
 30
0.0
 40
2.5
  1

 41
0.7
 51
15.0
  3
Name7:
  2
NAME7
 70
     0
  0
ATTDEF
  5
B7D8
  8
0
 62
     4
 10
-197.1862672583826
 20
42.0
 30
0.0
 40
2.5
  1

 41
0.7
 51
15.0
  3
Index8:
  2
INDEX8
 70
     0
  0
ATTDEF
  5
B7D9
  8
0
 62
     4
 10
-190.34874260355031
 20
42.0
 30
0.0
 40
2.5
  1

 41
0.7
 51
15.0
  3
Aenderung8:
  2
A8
 70
     0
  0
ATTDEF
  5
B7DA
  8
0
 62
     4
 10
-157.34874260355031
 20
42.0
 30
0.0
 40
2.5
  1

 41
0.7
 51
15.0
  3
Datum8:
  2
DATUM8
 70
     0
  0
ATTDEF
  5
B7DB
  8
0
 62
     4
 10
-144.46499013806701
 20
42.0
 30
0.0
 40
2.5
  1

 41
0.7
 51
15.0
  3
Name8:
  2
NAME8
 70
     0
  0
POLYLINE
  5
B7DC
  8
0
 62
     2
 66
     1
 10
0.0
 20
0.0
 30
0.0
  0
VERTEX
  5
BA92
  8
0
 62
     2
 10
0.0
 20
0.0
 30
0.0
  0
VERTEX
  5
BA93
  8
0
 62
     2
 10
0.0
 20
46.0
 30
0.0
  0
SEQEND
  5
BA94
  8
0
 62
     2
  0
POLYLINE
  5
B7DD
  8
0
 62
     2
 66
     1
 10
0.0
 20
0.0
 30
0.0
  0
VERTEX
  5
BA95
  8
0
 62
     2
 10
-200.0
 20
46.0
 30
0.0
  0
VERTEX
  5
BA96
  8
0
 62
     2
 10
-200.0
 20
0.0
 30
0.0
  0
SEQEND
  5
BA97
  8
0
 62
     2
  0
POLYLINE
  5
B7DE
  8
0
 62
     2
 66
     1
 10
0.0
 20
0.0
 30
0.0
  0
VERTEX
  5
BA98
  8
0
 62
     2
 10
0.0
 20
9.0
 30
0.0
  0
VERTEX
  5
BA99
  8
0
 62
     2
 10
-133.0
 20
9.0
 30
0.0
  0
SEQEND
  5
BA9A
  8
0
 62
     2
  0
POLYLINE
  5
B7DF
  8
0
 62
     2
 66
     1
 10
0.0
 20
0.0
 30
0.0
  0
VERTEX
  5
BA9B
  8
0
 62
     2
 10
0.0
 20
18.0
 30
0.0
  0
VERTEX
  5
BA9C
  8
0
 62
     2
 10
-51.0
 20
18.0
 30
0.0
  0
SEQEND
  5
BA9D
  8
0
 62
     2
  0
POLYLINE
  5
B7E0
  8
0
 62
     2
 66
     1
 10
0.0
 20
0.0
 30
0.0
  0
VERTEX
  5
BA9E
  8
0
 62
     2
 10
0.0
 20
26.0
 30
0.0
  0
VERTEX
  5
BA9F
  8
0
 62
     2
 10
-133.0
 20
26.0
 30
0.0
  0
SEQEND
  5
BAA0
  8
0
 62
     2
  0
POLYLINE
  5
B7E1
  8
0
 62
     2
 66
     1
 10
0.0
 20
0.0
 30
0.0
  0
VERTEX
  5
BAA1
  8
0
 62
     2
 10
0.0
 20
31.0
 30
0.0
  0
VERTEX
  5
BAA2
  8
0
 62
     2
 10
-51.0
 20
31.0
 30
0.0
  0
SEQEND
  5
BAA3
  8
0
 62
     2
  0
POLYLINE
  5
B7E2
  8
0
 62
     2
 66
     1
 10
0.0
 20
0.0
 30
0.0
  0
VERTEX
  5
BAA4
  8
0
 62
     2
 10
0.0
 20
36.0
 30
0.0
  0
VERTEX
  5
BAA5
  8
0
 62
     2
 10
-51.0
 20
36.0
 30
0.0
  0
SEQEND
  5
BAA6
  8
0
 62
     2
  0
POLYLINE
  5
B7E3
  8
0
 62
     2
 66
     1
 10
0.0
 20
0.0
 30
0.0
  0
VERTEX
  5
BAA7
  8
0
 62
     2
 10
0.0
 20
41.0
 30
0.0
  0
VERTEX
  5
BAA8
  8
0
 62
     2
 10
-51.0
 20
41.0
 30
0.0
  0
SEQEND
  5
BAA9
  8
0
 62
     2
  0
POLYLINE
  5
B7E4
  8
0
 62
     2
 66
     1
 10
0.0
 20
0.0
 30
0.0
  0
VERTEX
  5
BAAA
  8
0
 62
     2
 10
0.0
 20
46.0
 30
0.0
  0
VERTEX
  5
BAAB
  8
0
 62
     2
 10
-200.0
 20
46.0
 30
0.0
  0
SEQEND
  5
BAAC
  8
0
 62
     2
  0
TEXT
  5
B7E5
  8
035
 10
517.65315784783218
 20
512.84858999021753
 30
0.0
 40
3.5
  1
  
 41
0.7
 51
15.0
  0
LINE
  5
B7E6
  8
05
 10
-109.78683304835209
 20
1.9918663370028851
 30
0.0
 11
-107.1218538217631
 21
1.9918663370028851
 31
0.0
  0
LINE
  5
B7E7
  8
05
 10
-109.78683304835209
 20
1.9918663370028851
 30
0.0
 11
-108.88484451080581
 21
5.7212269608096227
 31
0.0
  0
LINE
  5
B7E8
  8
05
 10
-97.883056873532695
 20
2.941046471765929
 30
0.0
 11
-97.741767658313606
 21
3.5252206756179341
 31
0.0
  0
LINE
  5
B7E9
  8
05
 10
-100.62675264869139
 20
1.985934361472224
 30
0.0
 11
-99.739169578347628
 21
5.6557341594846191
 31
0.0
  0
LINE
  5
B7EA
  8
05
 10
-101.6525702459091
 20
1.991866337002882
 30
0.0
 11
-103.7779290465684
 21
3.448339754567221
 31
0.0
  0
LINE
  5
B7EB
  8
05
 10
-104.57533813105159
 20
1.9918663370028851
 30
0.0
 11
-106.7597940825441
 21
3.48883805970712
 31
0.0
  0
LINE
  5
B7EC
  8
05
 10
-107.1218538217631
 20
1.9918663370028851
 30
0.0
 11
-106.7597940825441
 21
3.48883805970712
 31
0.0
  0
LINE
  5
B7ED
  8
05
 10
-78.264921974117073
 20
1.9918663370018479
 30
0.0
 11
-80.343243437722805
 21
4.2570158836873508
 31
0.0
  0
LINE
  5
B7EE
  8
05
 10
-75.015520852942274
 20
1.991866337002878
 30
0.0
 11
-74.129372498752886
 21
5.655734159485319
 31
0.0
  0
LINE
  5
B7EF
  8
05
 10
-80.891095773025427
 20
1.9918663370025049
 30
0.0
 11
-80.343243437723174
 21
4.2570158836866483
 31
0.0
  0
LINE
  5
B7F0
  8
05
 10
-83.271451166946505
 20
1.9918663370025049
 30
0.0
 11
-82.385302812758056
 21
5.6557341594842887
 31
0.0
  0
LINE
  5
B7F1
  8
05
 10
-86.159077321275419
 20
5.6557341594846164
 30
0.0
 11
-84.240667666742979
 21
1.991866337002882
 31
0.0
  0
LINE
  5
B7F2
  8
05
 10
-92.656302414444966
 20
1.9918663370025049
 30
0.0
 11
-89.20289518730408
 21
5.6557341594846164
 31
0.0
  0
LINE
  5
B7F3
  8
05
 10
-99.739169578347628
 20
5.6557341594846191
 30
0.0
 11
-92.981553597599401
 21
5.655734159485319
 31
0.0
  0
LINE
  5
B7F4
  8
05
 10
-97.554767568331016
 20
4.2983910022902228
 30
0.0
 11
-97.430100730957875
 21
4.8138383445134698
 31
0.0
  0
LINE
  5
B7F5
  8
05
 10
-97.741767658313975
 20
3.5252206756176032
 30
0.0
 11
-94.448619706812366
 21
3.5252206756179341
 31
0.0
  0
LINE
  5
B7F6
  8
05
 10
-97.554767568330632
 20
4.2983910022905496
 30
0.0
 11
-94.261619616829677
 21
4.2983910022902228
 31
0.0
  0
ARC
  5
B7F7
  8
05
 10
-103.576800163518
 20
1.0484882972761149
 30
0.0
 40
4.6037310052774787
 50
69.562986325370431
 51
81.731692240168215
  0
ARC
  5
B7F8
  8
05
 10
-104.3603333216701
 20
9.6953157949000115
 30
0.0
 40
6.2740660171972342
 50
275.32627756006741
 51
289.52599257429313
  0
ARC
  5
B7F9
  8
05
 10
-102.5940664039618
 20
4.9720770628631987
 30
0.0
 40
1.2327170994611441
 50
286.58188649066301
 51
338.14695643463642
  0
ARC
  5
B7FA
  8
05
 10
-102.0219367310586
 20
4.683869386119464
 30
0.0
 40
0.5972269208190048
 50
340.39974372020578
 51
51.414227838870453
  0
ARC
  5
B7FB
  8
05
 10
-102.9254509671164
 20
3.5630113224345119
 30
0.0
 40
2.0377001943981661
 50
51.536856151961693
 51
62.015041241413471
  0
ARC
  5
B7FC
  8
05
 10
-105.569754799183
 20
-23.421023874283328
 30
0.0
 40
29.146566368908172
 50
84.676683437458124
 51
90.985976470691384
  0
ARC
  5
B7FD
  8
05
 10
-105.66275477025729
 20
8.0454129654963822
 30
0.0
 40
4.086755202961017
 50
273.84453704372032
 51
284.46462793712249
  0
ARC
  5
B7FE
  8
05
 10
-105.4613562964997
 20
1.639787309913312
 30
0.0
 40
3.3174382729703238
 50
71.645510386436442
 51
85.712787694453695
  0
ARC
  5
B7FF
  8
05
 10
-105.26614317300449
 20
5.6230814654518531
 30
0.0
 40
1.6569466452348129
 50
292.13000306555853
 51
304.02720735554431
  0
ARC
  5
B800
  8
05
 10
-104.53310252415289
 20
4.4967315408467341
 30
0.0
 40
0.3140859843502878
 50
308.18397114713127
 51
68.249047543413937
  0
LINE
  5
B801
  8
05
 10
-106.68286465598079
 20
3.9678543882207711
 30
0.0
 11
-106.4458190427289
 21
4.9479428697369414
 31
0.0
  0
LINE
  5
B802
  8
05
 10
-106.68286465598079
 20
3.9678543882210979
 30
0.0
 11
-105.3887399206229
 21
3.9678543882214292
 31
0.0
  0
LINE
  5
B803
  8
05
 10
-106.4458190427289
 20
4.9479428697369414
 30
0.0
 11
-105.21335733083011
 21
4.9479428697372683
 31
0.0
  0
LINE
  5
B804
  8
05
 10
-108.88484451080581
 20
5.7212269608096227
 30
0.0
 11
-106.0016110672158
 21
5.7212269608096227
 31
0.0
  0
LINE
  5
B805
  8
05
 10
-93.185175733272004
 20
4.8138383445131403
 30
0.0
 11
-92.981553597599401
 21
5.655734159485319
 31
0.0
  0
LINE
  5
B806
  8
05
 10
-97.430100730958173
 20
4.8138383445131403
 30
0.0
 11
-93.185175733271606
 21
4.8138383445134698
 31
0.0
  0
LINE
  5
B807
  8
05
 10
-94.448619706812366
 20
3.5252206756176032
 30
0.0
 11
-94.261619616829961
 21
4.2983910022905496
 31
0.0
  0
LINE
  5
B808
  8
05
 10
-77.190213188165629
 20
3.465138938138046
 30
0.0
 11
-76.660392669483571
 21
5.6557341594846164
 31
0.0
  0
LINE
  5
B809
  8
05
 10
-81.626596326446361
 20
5.6557341594842887
 30
0.0
 11
-81.629003084324466
 21
5.6583572698222611
 31
0.0
  0
LINE
  5
B80A
  8
05
 10
-76.660392669483571
 20
5.6557341594846164
 30
0.0
 11
-74.129372498752886
 21
5.655734159485319
 31
0.0
  0
LINE
  5
B80B
  8
05
 10
-77.190213188165629
 20
3.465138938138046
 30
0.0
 11
-79.200129519411831
 21
5.6557341594846164
 31
0.0
  0
LINE
  5
B80C
  8
05
 10
-82.385302812758056
 20
5.6557341594842887
 30
0.0
 11
-79.200129519411831
 21
5.6557341594846164
 31
0.0
  0
LINE
  5
B80D
  8
05
 10
-89.117244030689307
 20
3.2846780332485639
 30
0.0
 11
-87.581878719349504
 21
3.2846780332485599
 31
0.0
  0
LINE
  5
B80E
  8
05
 10
-89.117244030689307
 20
3.2846780332485639
 30
0.0
 11
-88.130195927732785
 21
4.3318796940438018
 31
0.0
  0
LINE
  5
B80F
  8
05
 10
-88.130195927733425
 20
4.3318796940431454
 30
0.0
 11
-87.581878719349135
 21
3.2846780332485599
 31
0.0
  0
LINE
  5
B810
  8
05
 10
-89.20289518730408
 20
5.6557341594846164
 30
0.0
 11
-86.159077321275419
 21
5.6557341594846164
 31
0.0
  0
LINE
  5
B811
  8
05
 10
-90.335793790522885
 20
1.9918663370025049
 30
0.0
 11
-89.910780799877074
 21
2.4427808449485511
 31
0.0
  0
LINE
  5
B812
  8
05
 10
-100.6253179325368
 20
1.9918663370025089
 30
0.0
 11
-93.867701951788149
 21
1.991866337003209
 31
0.0
  0
LINE
  5
B813
  8
05
 10
-97.883056873532041
 20
2.9410464717656022
 30
0.0
 11
-93.638131875846156
 21
2.941046471765929
 31
0.0
  0
LINE
  5
B814
  8
05
 10
-104.57533813105159
 20
1.9918663370028851
 30
0.0
 11
-101.58288153919079
 21
1.991866337002882
 31
0.0
  0
LINE
  5
B815
  8
05
 10
-92.656302414444966
 20
1.9918663370025049
 30
0.0
 11
-90.335793790522885
 21
1.9918663370025049
 31
0.0
  0
LINE
  5
B816
  8
05
 10
-93.869136667943124
 20
1.985934361472224
 30
0.0
 11
-93.638131875846454
 21
2.941046471765929
 31
0.0
  0
LINE
  5
B817
  8
05
 10
-78.264921974116689
 20
1.9918663370021781
 30
0.0
 11
-75.015520852942657
 21
1.9918663370025049
 31
0.0
  0
LINE
  5
B818
  8
05
 10
-83.271451166946505
 20
1.9918663370025049
 30
0.0
 11
-80.891095773025427
 21
1.9918663370025049
 31
0.0
  0
LINE
  5
B819
  8
05
 10
-89.910780799877074
 20
2.4427808449485511
 30
0.0
 11
-87.141059406969234
 21
2.4427808449482198
 31
0.0
  0
LINE
  5
B81A
  8
05
 10
-87.141059406969234
 20
2.442780844948877
 30
0.0
 11
-86.904959529102058
 21
1.991866337002882
 31
0.0
  0
LINE
  5
B81B
  8
05
 10
-86.904959529102058
 20
1.991866337002882
 30
0.0
 11
-84.240667666742979
 21
1.991866337002882
 31
0.0
  0
ENDBLK
  5
B81D
  8
0
  0
BLOCK
  8
0
  2
A$C65372744
 70
     0
 10
0.0
 20
0.0
 30
0.0
  3
A$C65372744
  1

  0
INSERT
  5
B81F
  8
035
 66
     1
  2
ZKOPF-REAN
 10
160.00000107315009
 20
-0.0000000870202825
 30
0.0
 41
0.8000000043752648
 42
0.8000000043752648
 43
0.8000000043752648
  0
ATTRIB
  5
B820
  8
0
 62
     4
 10
147.86666767345849
 20
29.600000074864521
 30
0.0
 40
2.000000010938161
  1
Battlogg
  7
SCRIPTS
 72
     1
 11
153.2000010359603
 21
29.600000074864521
 31
0.0
  2
NAME
 70
     0
  0
ATTRIB
  5
B821
  8
0
 62
     4
 10
136.55000094490009
 20
29.600000074864521
 30
0.0
 40
2.000000010938161
  1
11.09.95
 41
0.7
 51
15.0
 72
     1
 11
140.40000096595611
 21
29.600000074864521
 31
0.0
  2
DATE
 70
     0
  0
ATTRIB
  5
B822
  8
0
 62
     4
 10
95.600000720941296
 20
28.800000070489251
 30
0.0
 40
2.000000010938161
  1

 41
0.7
 51
15.0
 72
     1
 11
95.600000720941296
 21
28.800000070489251
 31
0.0
  2
WERKSTOFF
 70
     0
  0
ATTRIB
  5
B823
  8
0
 62
     2
 10
77.066667286247636
 20
9.9999999676705258
 30
0.0
 40
4.000000021876323
  1
NYS 233
 41
0.7
 51
15.0
 72
     1
 11
86.400000670625715
 21
9.9999999676705258
 31
0.0
  2
BENENNUNG
 70
     0
  0
ATTRIB
  5
B824
  8
0
 62
     3
 10
65.57430194189206
 20
16.865753165641429
 30
0.0
 40
2.8000000153134259
  1
1/4" stereo jack insulated
 41
0.7
 51
15.0
 72
     1
 11
88.767635402071619
 21
16.865753165641429
 31
0.0
  2
TEIL
 70
     0
  0
ATTRIB
  5
B825
  8
0
 62
     3
 10
131.79982565285991
 20
1.581232734857843
 30
0.0
 40
2.8000000153134259
  1
3102 ST 22 06
 41
0.7
 51
15.0
 72
     1
 11
143.5598257171763
 21
1.581232734857843
 31
0.0
  2
NUMMER
 70
     0
  0
ATTRIB
  5
B826
  8
0
 62
     2
 10
109.2138634854157
 20
27.72484505095677
 30
0.0
 40
4.000000021876323
  1
2:1
 41
0.7
 51
15.0
 72
     1
 11
111.54719683151021
 21
27.72484505095677
 31
0.0
  2
MASS
 70
     0
  0
ATTRIB
  5
B827
  8
0
 62
     3
 10
111.615440051747
 20
22.56836046774815
 30
0.0
 40
2.8000000153134259
  1

 41
0.7
 51
15.0
 72
     1
 11
111.615440051747
 21
22.56836046774815
 31
0.0
  2
MASS2
 70
     0
  0
ATTRIB
  5
B828
  8
0
 62
     4
 10
95.200000718753628
 20
23.200000039862399
 30
0.0
 40
2.000000010938161
  1

 41
0.7
 51
15.0
 72
     1
 11
95.200000718753628
 21
23.200000039862399
 31
0.0
  2
TEIL
 70
     0
  0
ATTRIB
  5
B829
  8
0
 62
     3
 10
73.83083904943453
 20
47.20345516908278
 30
0.0
 40
2.8000000153134259
  1

 41
0.7
 51
15.0
  2
TOL
 70
     0
  0
ATTRIB
  5
B82A
  8
0
 62
     3
 10
73.83083904943453
 20
43.203455147206462
 30
0.0
 40
2.8000000153134259
  1

 41
0.7
 51
15.0
  2
RADIEN
 70
     0
  0
ATTRIB
  5
B82B
  8
0
 62
     3
 10
73.83083904943453
 20
39.203455125330137
 30
0.0
 40
2.8000000153134259
  1

 41
0.7
 51
15.0
  2
FACETTE
 70
     0
  0
ATTRIB
  5
B82C
  8
0
 62
     4
 10
2.2509864037018579
 20
5.5999999436065711
 30
0.0
 40
2.000000010938161
  1

 41
0.7
 51
15.0
  2
INDEX1
 70
     0
  0
ATTRIB
  5
B82D
  8
0
 62
     4
 10
7.7210061574837141
 20
5.5999999436065711
 30
0.0
 40
2.000000010938161
  1

 41
0.7
 51
15.0
  2
A1
 70
     0
  0
ATTRIB
  5
B82E
  8
0
 62
     4
 10
34.12100630186746
 20
5.5999999436065711
 30
0.0
 40
2.000000010938161
  1

 41
0.7
 51
15.0
  2
DATUM1
 70
     0
  0
ATTRIB
  5
B82F
  8
0
 62
     4
 10
44.428008330623918
 20
5.5999999436065711
 30
0.0
 40
2.000000010938161
  1

 41
0.7
 51
15.0
  2
NAME1
 70
     0
  0
ATTRIB
  5
B830
  8
0
 62
     4
 10
2.2509864037018579
 20
9.599999965482894
 30
0.0
 40
2.000000010938161
  1

 41
0.7
 51
15.0
  2
INDEX2
 70
     0
  0
ATTRIB
  5
B831
  8
0
 62
     4
 10
7.7210061574837141
 20
9.599999965482894
 30
0.0
 40
2.000000010938161
  1

 41
0.7
 51
15.0
  2
A2
 70
     0
  0
ATTRIB
  5
B832
  8
0
 62
     4
 10
34.12100630186746
 20
9.599999965482894
 30
0.0
 40
2.000000010938161
  1

 41
0.7
 51
15.0
  2
DATUM2
 70
     0
  0
ATTRIB
  5
B833
  8
0
 62
     4
 10
44.428008330623918
 20
9.599999965482894
 30
0.0
 40
2.000000010938161
  1

 41
0.7
 51
15.0
  2
NAME2
 70
     0
  0
ATTRIB
  5
B834
  8
0
 62
     4
 10
2.2509864037018579
 20
13.599999987359221
 30
0.0
 40
2.000000010938161
  1

 41
0.7
 51
15.0
  2
INDEX3
 70
     0
  0
ATTRIB
  5
B835
  8
0
 62
     4
 10
7.7210061574837141
 20
13.599999987359221
 30
0.0
 40
2.000000010938161
  1

 41
0.7
 51
15.0
  2
A3
 70
     0
  0
ATTRIB
  5
B836
  8
0
 62
     4
 10
34.12100630186746
 20
13.599999987359221
 30
0.0
 40
2.000000010938161
  1

 41
0.7
 51
15.0
  2
DATUM3
 70
     0
  0
ATTRIB
  5
B837
  8
0
 62
     4
 10
44.428008330623918
 20
13.599999987359221
 30
0.0
 40
2.000000010938161
  1

 41
0.7
 51
15.0
  2
NAME3
 70
     0
  0
ATTRIB
  5
B838
  8
0
 62
     4
 10
2.2509864037018579
 20
17.60000000923554
 30
0.0
 40
2.000000010938161
  1

 41
0.7
 51
15.0
  2
INDEX4
 70
     0
  0
ATTRIB
  5
B839
  8
0
 62
     4
 10
7.7210061574837141
 20
17.60000000923554
 30
0.0
 40
2.000000010938161
  1

 41
0.7
 51
15.0
  2
A4
 70
     0
  0
ATTRIB
  5
B83A
  8
0
 62
     4
 10
34.12100630186746
 20
17.60000000923554
 30
0.0
 40
2.000000010938161
  1

 41
0.7
 51
15.0
  2
DATUM4
 70
     0
  0
ATTRIB
  5
B83B
  8
0
 62
     4
 10
44.428008330623918
 20
17.60000000923554
 30
0.0
 40
2.000000010938161
  1

 41
0.7
 51
15.0
  2
NAME4
 70
     0
  0
ATTRIB
  5
B83C
  8
0
 62
     4
 10
2.2509864037018579
 20
21.600000031111868
 30
0.0
 40
2.000000010938161
  1

 41
0.7
 51
15.0
  2
INDEX5
 70
     0
  0
ATTRIB
  5
B83D
  8
0
 62
     4
 10
7.7210061574837141
 20
21.600000031111868
 30
0.0
 40
2.000000010938161
  1

 41
0.7
 51
15.0
  2
A5
 70
     0
  0
ATTRIB
  5
B83E
  8
0
 62
     4
 10
34.12100630186746
 20
21.600000031111868
 30
0.0
 40
2.000000010938161
  1

 41
0.7
 51
15.0
  2
DATUM5
 70
     0
  0
ATTRIB
  5
B83F
  8
0
 62
     4
 10
44.428008330623918
 20
21.600000031111868
 30
0.0
 40
2.000000010938161
  1

 41
0.7
 51
15.0
  2
NAME5
 70
     0
  0
ATTRIB
  5
B840
  8
0
 62
     4
 10
2.2509864037018579
 20
25.6000000529882
 30
0.0
 40
2.000000010938161
  1

 41
0.7
 51
15.0
  2
INDEX6
 70
     0
  0
ATTRIB
  5
B841
  8
0
 62
     4
 10
7.7210061574837141
 20
25.6000000529882
 30
0.0
 40
2.000000010938161
  1

 41
0.7
 51
15.0
  2
A6
 70
     0
  0
ATTRIB
  5
B842
  8
0
 62
     4
 10
34.12100630186746
 20
25.6000000529882
 30
0.0
 40
2.000000010938161
  1

 41
0.7
 51
15.0
  2
DATUM6
 70
     0
  0
ATTRIB
  5
B843
  8
0
 62
     4
 10
44.428008330623918
 20
25.6000000529882
 30
0.0
 40
2.000000010938161
  1

 41
0.7
 51
15.0
  2
NAME6
 70
     0
  0
ATTRIB
  5
B844
  8
0
 62
     4
 10
2.2509864037018579
 20
29.600000074864521
 30
0.0
 40
2.000000010938161
  1

 41
0.7
 51
15.0
  2
INDEX7
 70
     0
  0
ATTRIB
  5
B845
  8
0
 62
     4
 10
7.7210061574837141
 20
29.600000074864521
 30
0.0
 40
2.000000010938161
  1

 41
0.7
 51
15.0
  2
A7
 70
     0
  0
ATTRIB
  5
B846
  8
0
 62
     4
 10
34.12100630186746
 20
29.600000074864521
 30
0.0
 40
2.000000010938161
  1

 41
0.7
 51
15.0
  2
DATUM7
 70
     0
  0
ATTRIB
  5
B847
  8
0
 62
     4
 10
44.428008330623918
 20
29.600000074864521
 30
0.0
 40
2.000000010938161
  1

 41
0.7
 51
15.0
  2
NAME7
 70
     0
  0
ATTRIB
  5
B848
  8
0
 62
     4
 10
2.2509864037018579
 20
33.600000096740843
 30
0.0
 40
2.000000010938161
  1

 41
0.7
 51
15.0
  2
INDEX8
 70
     0
  0
ATTRIB
  5
B849
  8
0
 62
     4
 10
7.7210061574837141
 20
33.600000096740843
 30
0.0
 40
2.000000010938161
  1

 41
0.7
 51
15.0
  2
A8
 70
     0
  0
ATTRIB
  5
B84A
  8
0
 62
     4
 10
34.12100630186746
 20
33.600000096740843
 30
0.0
 40
2.000000010938161
  1

 41
0.7
 51
15.0
  2
DATUM8
 70
     0
  0
ATTRIB
  5
B84B
  8
0
 62
     4
 10
44.428008330623918
 20
33.600000096740843
 30
0.0
 40
2.000000010938161
  1

 41
0.7
 51
15.0
  2
NAME8
 70
     0
  0
SEQEND
  5
B84C
  8
035
  0
ENDBLK
  5
B84E
  8
0
  0
BLOCK
  8
0
  2
*U5
 70
     1
 10
0.0
 20
0.0
 30
0.0
  3
*U5
  1

  0
TEXT
  5
BA54
  8
BEM1
 62
     3
 10
132.42382918279779
 20
212.3995212812778
 30
0.0
 40
3.5
  1
SW11
 50
330.00000000000011
 41
0.7
 51
15.0
  0
ENDBLK
  5
BA56
  8
0
  0
ENDSEC
  0
SECTION
  2
ENTITIES
  0
INSERT
  5
30
  8
ASHADE
 62
     1
  2
AVE_RENDER
 10
0.0
 20
0.0
 30
0.0
1001
AVE_RENDER
1002
{
1070
     2
1000
Pref
1070
    40
1070
    20
1070
     1
1070
     0
1000

1070
    10
1070
     0
1070
    30
1040
1.0
1070
     1
1040
0.3
1040
0.7
1040
0.0
1040
10.0
1010
-1.0
1020
-1.0
1030
-1.0
1040
0.3
1070
    49
1002
}
  0
INSERT
  5
31
  8
ASHADE
 62
     3
  2
AVE_RENDER
 10
0.0
 20
0.0
 30
0.0
1001
AVE_RENDER
1002
{
1070
     0
1000
Full Opt
1070
     0
1070
     1
1070
     1
1070
     1
1070
     0
1070
     0
1070
     0
1070
     1
1070
     1
1040
0.0001
1040
0.0001
1002
}
  0
INSERT
  5
32
  8
ASHADE
 62
     4
  2
AVE_RENDER
 10
0.0
 20
0.0
 30
0.0
1001
AVE_RENDER
1002
{
1070
     0
1000
Quick Opt
1070
     0
1070
     1
1070
     1
1070
     1
1070
     1
1070
     0
1070
     1
1002
}
  0
INSERT
  5
36
  8
05
  2
NT_1
 10
98.709341459344387
 20
147.8406513925157
 30
0.0
 41
32.616999881868431
 42
-6.863009327815802
 43
32.616999881868431
  0
LINE
  5
7B
  8
05
 10
84.277292082986264
 20
158.38568162713409
 30
0.0
 11
77.477292082986324
 21
158.38568162713409
 31
0.0
  0
LINE
  5
7F
  8
05
 10
39.377292082986187
 20
158.3856816271342
 30
0.0
 11
39.377292082986187
 21
198.3856816271342
 31
0.0
  0
LINE
  5
87
  8
05
 10
84.277292082986264
 20
158.3856816271342
 30
0.0
 11
84.277292082986264
 21
198.3856816271342
 31
0.0
  0
LINE
  5
89
  8
MITTE
 10
94.654039761932395
 20
178.3856816271342
 30
0.0
 11
20.189162964282691
 21
178.3856816271342
 31
0.0
  0
LINE
  5
A4
  8
05
 10
52.077292082986233
 20
161.38568162713409
 30
0.0
 11
52.077292082986233
 21
158.38568162713409
 31
0.0
  0
LINE
  5
A5
  8
05
 10
46.177292082986263
 20
161.38568162713409
 30
0.0
 11
46.177292082986263
 21
158.38568162713409
 31
0.0
  0
LINE
  5
A6
  8
05
 10
46.177292082986263
 20
158.38568162713409
 30
0.0
 11
39.377292082986187
 21
158.38568162713409
 31
0.0
  0
LINE
  5
A7
  8
05
 10
58.877292082986187
 20
161.38568162713409
 30
0.0
 11
58.877292082986187
 21
158.38568162713409
 31
0.0
  0
LINE
  5
A8
  8
05
 10
64.777292082986278
 20
161.38568162713409
 30
0.0
 11
64.777292082986278
 21
158.38568162713409
 31
0.0
  0
LINE
  5
A9
  8
05
 10
71.577292082986233
 20
161.38568162713409
 30
0.0
 11
71.577292082986233
 21
158.38568162713409
 31
0.0
  0
LINE
  5
AA
  8
05
 10
77.477292082986324
 20
161.38568162713409
 30
0.0
 11
77.477292082986324
 21
158.38568162713409
 31
0.0
  0
LINE
  5
AB
  8
05
 10
71.577292082986233
 20
158.38568162713409
 30
0.0
 11
64.777292082986278
 21
158.38568162713409
 31
0.0
  0
LINE
  5
AC
  8
05
 10
58.877292082986187
 20
158.38568162713409
 30
0.0
 11
52.077292082986233
 21
158.38568162713409
 31
0.0
  0
LINE
  5
AD
  8
05
 10
71.577292082986233
 20
198.38568162713429
 30
0.0
 11
64.777292082986278
 21
198.38568162713429
 31
0.0
  0
LINE
  5
AE
  8
05
 10
77.477292082986324
 20
196.98568162713431
 30
0.0
 11
77.477292082986324
 21
198.38568162713429
 31
0.0
  0
LINE
  5
AF
  8
05
 10
71.577292082986233
 20
196.98568162713431
 30
0.0
 11
71.577292082986233
 21
198.38568162713429
 31
0.0
  0
LINE
  5
B0
  8
05
 10
84.277292082986264
 20
198.38568162713429
 30
0.0
 11
77.477292082986324
 21
198.38568162713429
 31
0.0
  0
LINE
  5
B1
  8
05
 10
58.877292082986187
 20
198.38568162713429
 30
0.0
 11
52.077292082986233
 21
198.38568162713429
 31
0.0
  0
LINE
  5
B2
  8
05
 10
64.777292082986278
 20
196.98568162713431
 30
0.0
 11
64.777292082986278
 21
198.38568162713429
 31
0.0
  0
LINE
  5
B3
  8
05
 10
58.877292082986187
 20
196.98568162713431
 30
0.0
 11
58.877292082986187
 21
198.38568162713429
 31
0.0
  0
LINE
  5
B4
  8
05
 10
46.177292082986263
 20
196.98568162713431
 30
0.0
 11
46.177292082986263
 21
198.38568162713429
 31
0.0
  0
LINE
  5
B5
  8
05
 10
52.077292082986233
 20
196.98568162713431
 30
0.0
 11
52.077292082986233
 21
198.38568162713429
 31
0.0
  0
LINE
  5
B6
  8
05
 10
46.177292082986263
 20
198.38568162713429
 30
0.0
 11
39.377292082986187
 21
198.38568162713429
 31
0.0
  0
ARC
  5
BF
  8
035
 10
49.12729208298618
 20
188.21556330827099
 30
0.0
 40
5.3549418604651189
 50
11.3617816359321
 51
168.6382183640678
  0
LINE
  5
C7
  8
025
 10
53.694070738383871
 20
171.5549341416972
 30
0.0
 11
51.978511933460268
 21
171.5549341416972
 31
0.0
  0
LINE
  5
CA
  8
025
 10
45.502136124767617
 20
164.52978968067029
 30
0.0
 11
44.629984271414642
 21
164.52978968067029
 31
0.0
  0
LINE
  5
CC
  8
025
 10
51.240212847718702
 20
171.5549341416972
 30
0.0
 11
44.849324455461449
 21
171.5549341416972
 31
0.0
  0
POLYLINE
  5
CD
  8
05
 66
     1
 10
0.0
 20
0.0
 30
0.0
 70
     1
  0
VERTEX
  5
B8D8
  8
05
 10
54.377292082986187
 20
195.3856816271342
 30
0.0
  0
VERTEX
  5
B8D9
  8
05
 10
54.377292082986187
 20
161.38568162713409
 30
0.0
  0
VERTEX
  5
B8DA
  8
05
 10
43.87729208298618
 20
161.38568162713409
 30
0.0
  0
VERTEX
  5
B8DB
  8
05
 10
43.87729208298618
 20
195.38568162713429
 30
0.0
  0
SEQEND
  5
B8DC
  8
05
  0
POLYLINE
  5
E6
  8
05
 66
     1
 10
0.0
 20
0.0
 30
0.0
 70
     1
  0
VERTEX
  5
B8DD
  8
05
 10
67.077292082986233
 20
195.3856816271342
 30
0.0
  0
VERTEX
  5
B8DE
  8
05
 10
67.077292082986233
 20
161.38568162713409
 30
0.0
  0
VERTEX
  5
B8DF
  8
05
 10
56.577292082986233
 20
161.38568162713409
 30
0.0
  0
VERTEX
  5
B8E0
  8
05
 10
56.577292082986233
 20
195.38568162713429
 30
0.0
  0
SEQEND
  5
B8E1
  8
05
  0
LINE
  5
ED
  8
025
 10
58.202136124767669
 20
164.52978968067029
 30
0.0
 11
57.162657132052921
 21
164.52978968067029
 31
0.0
  0
LINE
  5
EE
  8
025
 10
66.394070738383917
 20
171.5549341416972
 30
0.0
 11
64.419971719580317
 21
171.5549341416972
 31
0.0
  0
LINE
  5
F9
  8
025
 10
63.94021284771874
 20
171.5549341416972
 30
0.0
 11
57.248001438314432
 21
171.5549341416972
 31
0.0
  0
ARC
  5
FA
  8
035
 10
61.827292082986233
 20
188.21556330827099
 30
0.0
 40
5.3549418604651189
 50
11.3617816359321
 51
168.6382183640678
  0
POLYLINE
  5
FB
  8
05
 66
     1
 10
0.0
 20
0.0
 30
0.0
 70
     1
  0
VERTEX
  5
B8E2
  8
05
 10
79.777292082986278
 20
195.3856816271342
 30
0.0
  0
VERTEX
  5
B8E3
  8
05
 10
79.777292082986278
 20
161.38568162713409
 30
0.0
  0
VERTEX
  5
B8E4
  8
05
 10
69.277292082986278
 20
161.38568162713409
 30
0.0
  0
VERTEX
  5
B8E5
  8
05
 10
69.277292082986278
 20
195.38568162713429
 30
0.0
  0
SEQEND
  5
B8E6
  8
05
  0
LINE
  5
102
  8
025
 10
70.902136124767722
 20
164.52978968067029
 30
0.0
 11
69.862657132052973
 21
164.52978968067029
 31
0.0
  0
LINE
  5
103
  8
025
 10
79.094070738383962
 20
171.5549341416972
 30
0.0
 11
77.119971719580363
 21
171.5549341416972
 31
0.0
  0
ARC
  5
10F
  8
035
 10
74.527292082986264
 20
188.21556330827099
 30
0.0
 40
5.3549418604651189
 50
11.3617816359321
 51
168.6382183640678
  0
LINE
  5
1E7
  8
025
 10
76.170009022073273
 20
171.5549341416972
 30
0.0
 11
70.454105436782029
 21
171.5549341416972
 31
0.0
  0
LINE
  5
1F0
  8
025
 10
78.758839960556671
 20
164.52978968067029
 30
0.0
 11
72.077222223921481
 21
164.52978968067029
 31
0.0
  0
LINE
  5
1F1
  8
025
 10
65.693240099428536
 20
164.52978968067029
 30
0.0
 11
58.880020551588942
 21
164.52978968067029
 31
0.0
  0
LINE
  5
1F2
  8
025
 10
53.373396289253172
 20
164.52978968067029
 30
0.0
 11
45.989891688086352
 21
164.52978968067029
 31
0.0
  0
POLYLINE
  5
1105
  8
RAHMEN
 62
     7
 66
     1
 10
0.0
 20
0.0
 30
0.0
  0
VERTEX
  5
B8E7
  8
RAHMEN
 62
     7
 10
210.0
 20
0.0
 30
0.0
  0
VERTEX
  5
B8E8
  8
RAHMEN
 62
     7
 10
210.0
 20
297.0
 30
0.0
  0
VERTEX
  5
B8E9
  8
RAHMEN
 62
     7
 10
0.0
 20
297.0
 30
0.0
  0
VERTEX
  5
B8EA
  8
RAHMEN
 62
     7
 10
0.0
 20
0.0
 30
0.0
  0
VERTEX
  5
B8EB
  8
RAHMEN
 62
     7
 10
210.0
 20
0.0
 30
0.0
  0
SEQEND
  5
B8EC
  8
RAHMEN
 62
     7
  0
POLYLINE
  5
110C
  8
RAHMEN
 66
     1
 10
0.0
 20
0.0
 30
0.0
 70
     1
  0
VERTEX
  5
B8ED
  8
RAHMEN
 10
205.0
 20
5.0
 30
0.0
  0
VERTEX
  5
B8EE
  8
RAHMEN
 10
205.0
 20
292.0
 30
0.0
  0
VERTEX
  5
B8EF
  8
RAHMEN
 10
5.0
 20
292.0
 30
0.0
  0
VERTEX
  5
B8F0
  8
RAHMEN
 10
5.0
 20
5.0
 30
0.0
  0
SEQEND
  5
B8F1
  8
RAHMEN
  0
LINE
  5
1165
  8
05
 10
39.377292082986187
 20
232.65082560719389
 30
0.0
 11
38.937545542376583
 21
232.6508256071935
 31
0.0
  0
LINE
  5
116C
  8
05
 10
39.377292082986187
 20
250.9994467744969
 30
0.0
 11
38.937545542376583
 21
250.9994467744965
 31
0.0
  0
LINE
  5
116D
  8
025
 10
38.937545542376583
 20
249.25195904427721
 30
0.0
 11
39.377292082986187
 21
249.2519590442773
 31
0.0
  0
LINE
  5
11A6
  8
05
 10
46.177292082986263
 20
241.82367583587271
 30
0.0
 11
46.177292082986263
 21
225.82367583587271
 31
0.0
  0
LINE
  5
11A7
  8
05
 10
52.077292082986233
 20
225.82367583587271
 30
0.0
 11
52.077292082986233
 21
241.82367583587271
 31
0.0
  0
LINE
  5
11A8
  8
05
 10
58.877292082986301
 20
241.82367583587271
 30
0.0
 11
58.877292082986301
 21
225.82367583587271
 31
0.0
  0
LINE
  5
11A9
  8
05
 10
64.777292082986278
 20
241.82367583587271
 30
0.0
 11
64.777292082986278
 21
225.82367583587271
 31
0.0
  0
LINE
  5
11AA
  8
05
 10
71.577292082986233
 20
241.82367583587271
 30
0.0
 11
71.577292082986233
 21
225.82367583587271
 31
0.0
  0
LINE
  5
11AB
  8
05
 10
77.477292082986324
 20
225.82367583587271
 30
0.0
 11
77.477292082986324
 21
241.82367583587271
 31
0.0
  0
POLYLINE
  5
11C3
  8
05
 66
     1
 10
0.0
 20
0.0
 30
0.0
  0
VERTEX
  5
B8F2
  8
05
 10
52.077292082986233
 20
241.82367583587271
 30
0.0
  0
VERTEX
  5
B8F3
  8
05
 10
54.377292082986187
 20
241.82367583587271
 30
0.0
  0
VERTEX
  5
B8F4
  8
05
 10
54.377292082986187
 20
256.4236758358727
 30
0.0
  0
VERTEX
  5
B8F5
  8
05
 10
56.577292082986233
 20
256.4236758358727
 30
0.0
  0
VERTEX
  5
B8F6
  8
05
 10
56.577292082986233
 20
241.82367583587271
 30
0.0
  0
VERTEX
  5
B8F7
  8
05
 10
58.877292082986301
 20
241.82367583587271
 30
0.0
  0
SEQEND
  5
B8F8
  8
05
  0
POLYLINE
  5
11D7
  8
05
 66
     1
 10
0.0
 20
0.0
 30
0.0
  0
VERTEX
  5
B8F9
  8
05
 10
64.777292082986278
 20
241.82367583587271
 30
0.0
  0
VERTEX
  5
B8FA
  8
05
 10
67.077292082986233
 20
241.82367583587271
 30
0.0
  0
VERTEX
  5
B8FB
  8
05
 10
67.077292082986233
 20
256.4236758358727
 30
0.0
  0
VERTEX
  5
B8FC
  8
05
 10
69.277292082986278
 20
256.4236758358727
 30
0.0
  0
VERTEX
  5
B8FD
  8
05
 10
69.277292082986278
 20
241.82367583587271
 30
0.0
  0
VERTEX
  5
B8FE
  8
05
 10
71.577292082986233
 20
241.82367583587259
 30
0.0
  0
SEQEND
  5
B8FF
  8
05
  0
POLYLINE
  5
1246
  8
05
 66
     1
 10
0.0
 20
0.0
 30
0.0
  0
VERTEX
  5
B900
  8
05
 10
60.527292082986293
 20
225.82367583587259
 30
0.0
  0
VERTEX
  5
B901
  8
05
 10
50.427292082986249
 20
225.82367583587259
 30
0.0
  0
SEQEND
  5
B902
  8
05
  0
POLYLINE
  5
124A
  8
05
 66
     1
 10
0.0
 20
0.0
 30
0.0
  0
VERTEX
  5
B903
  8
05
 10
77.477292082986324
 20
241.82367583587271
 30
0.0
  0
VERTEX
  5
B904
  8
05
 10
79.777292082986278
 20
241.82367583587271
 30
0.0
  0
VERTEX
  5
B905
  8
05
 10
79.777292082986278
 20
256.4236758358727
 30
0.0
  0
VERTEX
  5
B906
  8
05
 10
84.277292082986264
 20
256.4236758358727
 30
0.0
  0
VERTEX
  5
B907
  8
05
 10
84.277292082986264
 20
225.82367583587271
 30
0.0
  0
VERTEX
  5
B908
  8
05
 10
75.827292082986219
 20
225.82367583587271
 30
0.0
  0
SEQEND
  5
B909
  8
05
  0
POLYLINE
  5
1252
  8
05
 66
     1
 10
0.0
 20
0.0
 30
0.0
  0
VERTEX
  5
B90A
  8
05
 10
73.227292082986224
 20
225.82367583587271
 30
0.0
  0
VERTEX
  5
B90B
  8
05
 10
63.127292082986287
 20
225.82367583587259
 30
0.0
  0
SEQEND
  5
B90C
  8
05
  0
CIRCLE
  5
1262
  8
035
 10
49.127292082986301
 20
235.82367583587259
 30
0.0
 40
1.0
  0
CIRCLE
  5
1263
  8
035
 10
61.827292082986233
 20
235.82367583587259
 30
0.0
 40
1.0
  0
CIRCLE
  5
1264
  8
035
 10
74.527292082986264
 20
235.82367583587259
 30
0.0
 40
1.0
  0
POLYLINE
  5
126E
  8
035
 66
     1
 10
0.0
 20
0.0
 30
0.0
  0
VERTEX
  5
B90D
  8
035
 10
43.87729208298618
 20
161.38568162713409
 30
0.0
  0
VERTEX
  5
B90E
  8
035
 10
43.87729208298618
 20
160.00770392105349
 30
0.0
  0
VERTEX
  5
B90F
  8
035
 10
44.677292082986249
 20
160.00770392105349
 30
0.0
  0
VERTEX
  5
B910
  8
035
 10
44.677292082986249
 20
161.38568162713409
 30
0.0
  0
SEQEND
  5
B911
  8
035
  0
POLYLINE
  5
1274
  8
035
 66
     1
 10
0.0
 20
0.0
 30
0.0
  0
VERTEX
  5
B912
  8
035
 10
53.577292082986233
 20
161.38568162713409
 30
0.0
  0
VERTEX
  5
B913
  8
035
 10
53.577292082986233
 20
160.00770392105349
 30
0.0
  0
VERTEX
  5
B914
  8
035
 10
54.377292082986187
 20
160.00770392105349
 30
0.0
  0
VERTEX
  5
B915
  8
035
 10
54.377292082986187
 20
161.38568162713409
 30
0.0
  0
SEQEND
  5
B916
  8
035
  0
POLYLINE
  5
127A
  8
035
 66
     1
 10
0.0
 20
0.0
 30
0.0
  0
VERTEX
  5
B917
  8
035
 10
56.577292082986233
 20
161.38568162713409
 30
0.0
  0
VERTEX
  5
B918
  8
035
 10
56.577292082986233
 20
160.00770392105349
 30
0.0
  0
VERTEX
  5
B919
  8
035
 10
57.377292082986187
 20
160.00770392105349
 30
0.0
  0
VERTEX
  5
B91A
  8
035
 10
57.377292082986187
 20
161.38568162713409
 30
0.0
  0
SEQEND
  5
B91B
  8
035
  0
POLYLINE
  5
1280
  8
035
 66
     1
 10
0.0
 20
0.0
 30
0.0
  0
VERTEX
  5
B91C
  8
035
 10
66.277292082986278
 20
161.38568162713409
 30
0.0
  0
VERTEX
  5
B91D
  8
035
 10
66.277292082986278
 20
160.00770392105349
 30
0.0
  0
VERTEX
  5
B91E
  8
035
 10
67.077292082986233
 20
160.00770392105349
 30
0.0
  0
VERTEX
  5
B91F
  8
035
 10
67.077292082986233
 20
161.38568162713409
 30
0.0
  0
SEQEND
  5
B920
  8
035
  0
POLYLINE
  5
1286
  8
035
 66
     1
 10
0.0
 20
0.0
 30
0.0
  0
VERTEX
  5
B921
  8
035
 10
69.277292082986278
 20
161.38568162713409
 30
0.0
  0
VERTEX
  5
B922
  8
035
 10
69.277292082986278
 20
160.00770392105349
 30
0.0
  0
VERTEX
  5
B923
  8
035
 10
70.077292082986233
 20
160.00770392105349
 30
0.0
  0
VERTEX
  5
B924
  8
035
 10
70.077292082986233
 20
161.38568162713409
 30
0.0
  0
SEQEND
  5
B925
  8
035
  0
POLYLINE
  5
128C
  8
035
 66
     1
 10
0.0
 20
0.0
 30
0.0
  0
VERTEX
  5
B926
  8
035
 10
78.977292082986324
 20
161.38568162713409
 30
0.0
  0
VERTEX
  5
B927
  8
035
 10
78.977292082986324
 20
160.00770392105349
 30
0.0
  0
VERTEX
  5
B928
  8
035
 10
79.777292082986278
 20
160.00770392105349
 30
0.0
  0
VERTEX
  5
B929
  8
035
 10
79.777292082986278
 20
161.38568162713409
 30
0.0
  0
SEQEND
  5
B92A
  8
035
  0
LINE
  5
1293
  8
05
 10
54.377292082986187
 20
241.82367583587271
 30
0.0
 11
56.577292082986233
 21
241.82367583587271
 31
0.0
  0
LINE
  5
1294
  8
05
 10
67.077292082986233
 20
241.82367583587271
 30
0.0
 11
69.277292082986278
 21
241.82367583587271
 31
0.0
  0
LINE
  5
1295
  8
05
 10
79.777292082986278
 20
241.82367583587271
 30
0.0
 11
84.277292082986264
 21
241.82367583587271
 31
0.0
  0
LINE
  5
1296
  8
05
 10
43.87729208298618
 20
241.82367583587271
 30
0.0
 11
39.377292082986187
 21
241.82367583587271
 31
0.0
  0
LINE
  5
1297
  8
05
 10
43.87729208298618
 20
198.38568162713429
 30
0.0
 11
43.87729208298618
 21
158.38568162713409
 31
0.0
  0
LINE
  5
1298
  8
05
 10
54.377292082986187
 20
198.3856816271342
 30
0.0
 11
54.377292082986187
 21
158.38568162713401
 31
0.0
  0
LINE
  5
1299
  8
05
 10
56.577292082986233
 20
198.38568162713429
 30
0.0
 11
56.577292082986233
 21
158.38568162713409
 31
0.0
  0
LINE
  5
129A
  8
05
 10
67.077292082986233
 20
198.3856816271342
 30
0.0
 11
67.077292082986233
 21
158.38568162713401
 31
0.0
  0
LINE
  5
129B
  8
05
 10
69.277292082986278
 20
198.38568162713429
 30
0.0
 11
69.277292082986278
 21
158.38568162713409
 31
0.0
  0
LINE
  5
129C
  8
05
 10
79.777292082986278
 20
198.3856816271342
 30
0.0
 11
79.777292082986278
 21
158.38568162713401
 31
0.0
  0
LINE
  5
129F
  8
05
 10
46.177292082986263
 20
196.98568162713431
 30
0.0
 11
52.077292082986233
 21
196.98568162713431
 31
0.0
  0
LINE
  5
12A0
  8
05
 10
58.877292082986187
 20
196.98568162713431
 30
0.0
 11
64.777292082986278
 21
196.98568162713431
 31
0.0
  0
LINE
  5
12A1
  8
05
 10
71.577292082986233
 20
196.98568162713431
 30
0.0
 11
77.477292082986324
 21
196.98568162713431
 31
0.0
  0
LINE
  5
12AE
  8
05
 10
34.617474396171623
 20
241.825136190845
 30
0.0
 11
27.424281449402859
 21
241.825136190845
 31
0.0
  0
CIRCLE
  5
138B
  8
05
 10
154.44588121342861
 20
241.82367583587271
 30
0.0
 40
6.4000000000000004
  0
POLYLINE
  5
13AD
  8
05
 66
     1
 10
0.0
 20
0.0
 30
0.0
  0
VERTEX
  5
B92B
  8
05
 10
84.277292082986264
 20
232.6236758358728
 30
0.0
  0
VERTEX
  5
B92C
  8
05
 10
89.877292082986287
 20
232.6236758358728
 30
0.0
  0
VERTEX
  5
B92D
  8
05
 10
89.877292082986287
 20
251.02367583587261
 30
0.0
  0
VERTEX
  5
B92E
  8
05
 10
84.277292082986264
 20
251.02367583587261
 30
0.0
  0
SEQEND
  5
B92F
  8
05
  0
POLYLINE
  5
13B4
  8
05
 66
     1
 10
0.0
 20
0.0
 30
0.0
  0
VERTEX
  5
B930
  8
05
 10
84.277292082986264
 20
169.1856816271343
 30
0.0
  0
VERTEX
  5
B931
  8
05
 10
89.877292082986244
 20
169.1856816271343
 30
0.0
  0
VERTEX
  5
B932
  8
05
 10
89.877292082986287
 20
187.58568162713411
 30
0.0
  0
VERTEX
  5
B933
  8
05
 10
84.277292082986264
 20
187.58568162713411
 30
0.0
  0
SEQEND
  5
B934
  8
05
  0
POLYLINE
  5
13CC
  8
025
 66
     1
 10
0.0
 20
0.0
 30
0.0
  0
VERTEX
  5
B935
  8
025
 10
46.866152316896333
 20
172.7301337598083
 30
0.0
 42
0.1957062860191981
  0
VERTEX
  5
B936
  8
025
 10
48.02792319915001
 20
175.0907237263971
 30
0.0
  0
VERTEX
  5
B937
  8
025
 10
48.02792319915001
 20
184.35400210388471
 30
0.0
 42
0.1720024612105806
  0
VERTEX
  5
B938
  8
025
 10
46.859956154980082
 20
187.55814223967579
 30
0.0
 42
0.1720024612105806
  0
SEQEND
  5
B939
  8
025
  0
POLYLINE
  5
13D7
  8
025
 66
     1
 10
0.0
 20
0.0
 30
0.0
  0
VERTEX
  5
B93A
  8
025
 10
51.40233644569777
 20
187.35788248457411
 30
0.0
 42
0.184217657103692
  0
VERTEX
  5
B93B
  8
025
 10
50.226660966822593
 20
184.88802612425971
 30
0.0
  0
VERTEX
  5
B93C
  8
025
 10
50.226660966822593
 20
175.0907237263971
 30
0.0
 42
0.1918553960062915
  0
VERTEX
  5
B93D
  8
025
 10
51.349977319299242
 20
172.7648492604242
 30
0.0
  0
SEQEND
  5
B93E
  8
025
  0
POLYLINE
  5
13DE
  8
025
 66
     1
 10
0.0
 20
0.0
 30
0.0
  0
VERTEX
  5
B93F
  8
025
 10
64.102336445697702
 20
187.35788248457411
 30
0.0
 42
0.184217657103692
  0
VERTEX
  5
B940
  8
025
 10
62.926660966822638
 20
184.88802612425971
 30
0.0
  0
VERTEX
  5
B941
  8
025
 10
62.926660966822638
 20
175.0907237263971
 30
0.0
 42
0.1918553960062915
  0
VERTEX
  5
B942
  8
025
 10
64.049977319299174
 20
172.7648492604242
 30
0.0
  0
SEQEND
  5
B943
  8
025
  0
POLYLINE
  5
13E4
  8
025
 66
     1
 10
0.0
 20
0.0
 30
0.0
  0
VERTEX
  5
B944
  8
025
 10
59.566152316896378
 20
172.7301337598083
 30
0.0
 42
0.1957062860191981
  0
VERTEX
  5
B945
  8
025
 10
60.727923199150062
 20
175.0907237263971
 30
0.0
  0
VERTEX
  5
B946
  8
025
 10
60.727923199150062
 20
184.35400210388471
 30
0.0
 42
0.1720024612105806
  0
VERTEX
  5
B947
  8
025
 10
59.559956154980128
 20
187.55814223967579
 30
0.0
 42
0.1720024612105806
  0
SEQEND
  5
B948
  8
025
  0
POLYLINE
  5
13EA
  8
025
 66
     1
 10
0.0
 20
0.0
 30
0.0
  0
VERTEX
  5
B949
  8
025
 10
72.266152316896424
 20
172.7301337598083
 30
0.0
 42
0.1957062860191981
  0
VERTEX
  5
B94A
  8
025
 10
73.427923199149987
 20
175.0907237263971
 30
0.0
  0
VERTEX
  5
B94B
  8
025
 10
73.427923199149987
 20
184.35400210388471
 30
0.0
 42
0.1720024612105806
  0
VERTEX
  5
B94C
  8
025
 10
72.259956154980173
 20
187.55814223967579
 30
0.0
 42
0.1720024612105806
  0
SEQEND
  5
B94D
  8
025
  0
POLYLINE
  5
13F0
  8
025
 66
     1
 10
0.0
 20
0.0
 30
0.0
  0
VERTEX
  5
B94E
  8
025
 10
76.802336445697733
 20
187.35788248457411
 30
0.0
 42
0.184217657103692
  0
VERTEX
  5
B94F
  8
025
 10
75.626660966822556
 20
184.88802612425971
 30
0.0
  0
VERTEX
  5
B950
  8
025
 10
75.626660966822556
 20
175.0907237263971
 30
0.0
 42
0.1918553960062915
  0
VERTEX
  5
B951
  8
025
 10
76.749977319299106
 20
172.7648492604242
 30
0.0
  0
SEQEND
  5
B952
  8
025
  0
POLYLINE
  5
13FF
  8
05
 66
     1
 10
0.0
 20
0.0
 30
0.0
  0
VERTEX
  5
B953
  8
05
 10
39.377292082986187
 20
228.82367583587259
 30
0.0
  0
VERTEX
  5
B954
  8
05
 10
39.377292082986187
 20
256.4236758358727
 30
0.0
  0
VERTEX
  5
B955
  8
05
 10
43.87729208298618
 20
256.4236758358727
 30
0.0
  0
VERTEX
  5
B956
  8
05
 10
43.87729208298618
 20
241.82367583587271
 30
0.0
  0
VERTEX
  5
B957
  8
05
 10
46.177292082986263
 20
241.82367583587271
 30
0.0
  0
SEQEND
  5
B958
  8
05
  0
POLYLINE
  5
140A
  8
05
 66
     1
 10
0.0
 20
0.0
 30
0.0
  0
VERTEX
  5
B959
  8
05
 10
47.827292082986247
 20
225.82367583587259
 30
0.0
  0
VERTEX
  5
B95A
  8
05
 10
41.977292082986203
 20
225.82367583587271
 30
0.0
  0
VERTEX
  5
B95B
  8
05
 10
41.977292082986203
 20
228.82367583587271
 30
0.0
  0
VERTEX
  5
B95C
  8
05
 10
39.377292082986187
 20
228.82367583587271
 30
0.0
  0
SEQEND
  5
B95D
  8
05
  0
POLYLINE
  5
1412
  8
05
 66
     1
 10
0.0
 20
0.0
 30
0.0
  0
VERTEX
  5
B95E
  8
05
 10
140.47194559388879
 20
248.05417527821169
 30
0.0
  0
VERTEX
  5
B95F
  8
05
 10
134.44588121342861
 20
241.82367583587271
 30
0.0
  0
VERTEX
  5
B960
  8
05
 10
134.44588121342861
 20
225.82367583587271
 30
0.0
  0
VERTEX
  5
B961
  8
05
 10
154.44588121342861
 20
225.82367583587271
 30
0.0
  0
SEQEND
  5
B962
  8
05
  0
POLYLINE
  5
1418
  8
05
 66
     1
 10
0.0
 20
0.0
 30
0.0
  0
VERTEX
  5
B963
  8
05
 10
154.44588121342861
 20
225.82367583587271
 30
0.0
  0
VERTEX
  5
B964
  8
05
 10
174.44588121342881
 20
225.82367583587271
 30
0.0
  0
VERTEX
  5
B965
  8
05
 10
174.44588121342881
 20
241.82367583587271
 30
0.0
  0
VERTEX
  5
B966
  8
05
 10
168.4198168329643
 20
248.05417527821609
 30
0.0
  0
SEQEND
  5
B967
  8
05
  0
LINE
  5
141E
  8
05
 10
134.44588121342861
 20
228.82367583587271
 30
0.0
 11
146.3780438328167
 21
228.82367583587259
 31
0.0
  0
LINE
  5
141F
  8
05
 10
162.5137185940406
 20
228.82367583587271
 30
0.0
 11
174.44588121342881
 21
228.82367583587271
 31
0.0
  0
LINE
  5
1420
  8
MITTE
 10
154.44588121342861
 20
260.08367583587273
 30
0.0
 11
154.44588121342861
 21
223.5636758358726
 31
0.0
  0
LINE
  5
1421
  8
MITTE
 10
135.74588121342859
 20
241.82367583587271
 30
0.0
 11
173.14588121342879
 21
241.82367583587271
 31
0.0
  0
POLYLINE
  5
142F
  8
025
 66
     1
 10
0.0
 20
0.0
 30
0.0
  0
VERTEX
  5
B968
  8
025
 10
138.44588121342861
 20
219.06367583587269
 30
0.0
  0
VERTEX
  5
B969
  8
025
 10
137.64588121342859
 20
219.06367583587269
 30
0.0
  0
SEQEND
  5
B96A
  8
025
  0
LINE
  5
143D
  8
035
 10
44.677292082986249
 20
241.82367583587271
 30
0.0
 11
44.677292082986249
 21
246.52508901073381
 31
0.0
  0
LINE
  5
143F
  8
035
 10
53.577292082986233
 20
241.82367583587271
 30
0.0
 11
53.577292082986233
 21
246.52508901073381
 31
0.0
  0
LINE
  5
1440
  8
035
 10
43.87729208298618
 20
246.52508901073381
 30
0.0
 11
44.677292082986249
 21
246.52508901073381
 31
0.0
  0
LINE
  5
1441
  8
035
 10
53.577292082986233
 20
246.52508901073381
 30
0.0
 11
54.377292082986187
 21
246.52508901073381
 31
0.0
  0
LINE
  5
1443
  8
035
 10
57.377292082986301
 20
241.82367583587271
 30
0.0
 11
57.377292082986301
 21
246.52508901073381
 31
0.0
  0
LINE
  5
1444
  8
035
 10
66.277292082986278
 20
241.82367583587271
 30
0.0
 11
66.277292082986278
 21
246.52508901073381
 31
0.0
  0
LINE
  5
1445
  8
035
 10
56.577292082986233
 20
246.52508901073381
 30
0.0
 11
57.377292082986301
 21
246.52508901073381
 31
0.0
  0
LINE
  5
1446
  8
035
 10
66.277292082986278
 20
246.52508901073381
 30
0.0
 11
67.077292082986233
 21
246.52508901073381
 31
0.0
  0
LINE
  5
1447
  8
035
 10
70.077292082986233
 20
241.82367583587271
 30
0.0
 11
70.077292082986233
 21
246.52508901073381
 31
0.0
  0
LINE
  5
1448
  8
035
 10
78.977292082986324
 20
241.82367583587271
 30
0.0
 11
78.97729208298621
 21
246.52508901073381
 31
0.0
  0
LINE
  5
1449
  8
035
 10
69.277292082986278
 20
246.52508901073381
 30
0.0
 11
70.077292082986233
 21
246.52508901073381
 31
0.0
  0
LINE
  5
144A
  8
035
 10
78.977292082986324
 20
246.52508901073381
 30
0.0
 11
79.777292082986278
 21
246.52508901073381
 31
0.0
  0
LINE
  5
153B
  8
BEM1
 10
39.377292082986187
 20
257.4236758358727
 30
0.0
 11
39.377292082986187
 21
268.30009280434138
 31
0.0
  0
LINE
  5
153C
  8
BEM1
 10
22.37729208298617
 20
251.32367583587259
 30
0.0
 11
22.37729208298617
 21
278.49136351626947
 31
0.0
  0
LINE
  5
153D
  8
BEM1
 10
35.877292082986173
 20
268.3601893583745
 30
0.0
 11
25.87729208298617
 21
268.3601893583745
 31
0.0
  0
SOLID
  5
153E
  8
BEM1
 10
35.877292082986173
 20
268.94352269170781
 30
0.0
 11
35.877292082986173
 21
267.77685602504113
 31
0.0
 12
39.377292082986187
 22
268.3601893583745
 32
0.0
 13
39.377292082986187
 23
268.3601893583745
 33
0.0
  0
SOLID
  5
153F
  8
BEM1
 10
25.87729208298617
 20
268.94352269170781
 30
0.0
 11
25.87729208298617
 21
267.77685602504113
 31
0.0
 12
22.37729208298617
 22
268.3601893583745
 32
0.0
 13
22.37729208298617
 23
268.3601893583745
 33
0.0
  0
TEXT
  5
1540
  8
BEM1
 62
     3
 10
23.06248411524021
 20
270.20457988538197
 30
0.0
 40
3.5
  1
8.50
 41
0.7
 51
15.0
 72
     1
 11
26.533317448573541
 21
271.95457988538197
 31
0.0
 73
     2
  0
LINE
  5
1548
  8
BEM1
 10
89.877292082986287
 20
252.02367583587261
 30
0.0
 11
89.877292082986287
 21
278.06287629646158
 31
0.0
  0
LINE
  5
1549
  8
BEM1
 10
22.37729208298617
 20
277.36018935837438
 30
0.0
 11
86.377292082986301
 21
277.36018935837438
 31
0.0
  0
SOLID
  5
154A
  8
BEM1
 10
25.87729208298617
 20
277.9435226917077
 30
0.0
 11
25.87729208298617
 21
276.77685602504113
 31
0.0
 12
22.37729208298617
 22
277.36018935837438
 32
0.0
 13
22.37729208298617
 23
277.36018935837438
 33
0.0
  0
SOLID
  5
154B
  8
BEM1
 10
86.377292082986301
 20
277.9435226917077
 30
0.0
 11
86.377292082986301
 21
276.77685602504113
 31
0.0
 12
89.877292082986287
 22
277.36018935837438
 32
0.0
 13
89.877292082986287
 23
277.36018935837438
 33
0.0
  0
TEXT
  5
154C
  8
BEM1
 62
     3
 10
45.612547579201788
 20
279.1101893583745
 30
0.0
 40
3.5
  1
33.50
 41
0.7
 51
15.0
 72
     1
 11
50.308380912535128
 21
280.8601893583745
 31
0.0
 73
     2
  0
LINE
  5
154D
  8
BEM1
 10
134.44588121342861
 20
242.82367583587271
 30
0.0
 11
134.44588121342861
 21
278.06287629646158
 31
0.0
  0
LINE
  5
154E
  8
BEM1
 10
174.44588121342881
 20
242.82367583587271
 30
0.0
 11
174.44588121342881
 21
278.06287629646158
 31
0.0
  0
LINE
  5
154F
  8
BEM1
 10
137.94588121342861
 20
277.36018935837438
 30
0.0
 11
170.94588121342869
 21
277.36018935837438
 31
0.0
  0
SOLID
  5
1550
  8
BEM1
 10
137.94588121342861
 20
277.9435226917077
 30
0.0
 11
137.94588121342861
 21
276.77685602504113
 31
0.0
 12
134.44588121342861
 22
277.36018935837438
 32
0.0
 13
134.44588121342861
 23
277.36018935837438
 33
0.0
  0
SOLID
  5
1551
  8
BEM1
 10
170.94588121342869
 20
277.9435226917077
 30
0.0
 11
170.94588121342869
 21
276.77685602504113
 31
0.0
 12
174.44588121342881
 22
277.36018935837438
 32
0.0
 13
174.44588121342881
 23
277.36018935837438
 33
0.0
  0
TEXT
  5
1552
  8
BEM1
 62
     3
 10
143.88607403639631
 20
279.1101893583745
 30
0.0
 40
3.5
  1
20.00
 41
0.7
 51
15.0
 72
     1
 11
148.1735740363963
 21
280.8601893583745
 31
0.0
 73
     2
  0
LINE
  5
155A
  8
BEM1
 10
133.44588121342861
 20
225.82367583587271
 30
0.0
 11
123.32017474652341
 21
225.82367583587271
 31
0.0
  0
LINE
  5
155C
  8
BEM1
 10
123.86577097656981
 20
229.32367583587271
 30
0.0
 11
123.86577097656981
 21
238.32367583587271
 31
0.0
  0
SOLID
  5
155D
  8
BEM1
 10
123.28243764323651
 20
229.32367583587271
 30
0.0
 11
124.44910430990321
 21
229.32367583587271
 31
0.0
 12
123.86577097656981
 22
225.82367583587271
 32
0.0
 13
123.86577097656981
 23
225.82367583587271
 33
0.0
  0
SOLID
  5
155E
  8
BEM1
 10
123.28243764323651
 20
238.32367583587271
 30
0.0
 11
124.44910430990321
 21
238.32367583587271
 31
0.0
 12
123.86577097656981
 22
241.82367583587271
 32
0.0
 13
123.86577097656981
 23
241.82367583587271
 33
0.0
  0
TEXT
  5
155F
  8
BEM1
 62
     3
 10
122.11577097656981
 20
230.557009169206
 30
0.0
 40
3.5
  1
8.00
 50
90.0
 41
0.7
 51
15.0
 72
     1
 11
120.36577097656981
 21
233.82367583587271
 31
0.0
 73
     2
  0
LINE
  5
158D
  8
BEM1
 10
132.8341684509171
 20
241.82367583587271
 30
0.0
 11
123.32017474652341
 21
241.82367583587271
 31
0.0
  0
LINE
  5
17AC
  8
BEM1
 10
85.445779189255362
 20
225.82367583587271
 30
0.0
 11
104.1993608086285
 21
225.82367583587271
 31
0.0
  0
LINE
  5
17AD
  8
BEM1
 10
103.34016431943181
 20
255.32367583587279
 30
0.0
 11
103.34016431943181
 21
229.32367583587271
 31
0.0
  0
SOLID
  5
17AE
  8
BEM1
 10
102.75683098609851
 20
252.9236758358727
 30
0.0
 11
103.92349765276521
 21
252.9236758358727
 31
0.0
 12
103.34016431943181
 22
256.4236758358727
 32
0.0
 13
103.34016431943181
 23
256.4236758358727
 33
0.0
  0
SOLID
  5
17AF
  8
BEM1
 10
102.75683098609851
 20
229.32367583587271
 30
0.0
 11
103.92349765276521
 21
229.32367583587271
 31
0.0
 12
103.34016431943181
 22
225.82367583587271
 32
0.0
 13
103.34016431943181
 23
225.82367583587271
 33
0.0
  0
TEXT
  5
17B0
  8
BEM1
 62
     3
 10
101.59016431943181
 20
230.65619867420131
 30
0.0
 40
3.5
  1
15.50
 50
90.0
 41
0.7
 51
15.0
 72
     1
 11
99.840164319431864
 21
234.9436986742013
 31
0.0
 73
     2
  0
LINE
  5
17B2
  8
BEM1
 10
85.549394196572564
 20
256.4236758358727
 30
0.0
 11
88.338804939817138
 21
256.4236758358727
 31
0.0
  0
LINE
  5
1A32
  8
025
 10
38.937545542376583
 20
234.39831333741279
 30
0.0
 11
39.377292082986187
 21
234.3983133374127
 31
0.0
  0
TEXT
  5
1A4B
  8
BEM1
 62
     4
 10
57.754176587057252
 20
279.07701924349851
 30
0.0
 40
3.0
  1
[1.320"]
 41
0.7
 51
15.0
 72
     1
 11
63.52917658705725
 21
280.57701924349851
 31
0.0
 73
     2
  0
TEXT
  5
1A4C
  8
BEM1
 62
     4
 10
31.859952719772501
 20
270.36019082452123
 30
0.0
 40
3.0
  1
[.334"]
 41
0.7
 51
15.0
 72
     1
 11
37.109952719772501
 21
271.86019082452123
 31
0.0
 73
     2
  0
TEXT
  5
1A4D
  8
BEM1
 62
     4
 10
154.99318152778059
 20
279.07701924349851
 30
0.0
 40
3.0
  1
[.787"]
 41
0.7
 51
15.0
 72
     1
 11
160.24318152778071
 21
280.57701924349851
 31
0.0
 73
     2
  0
TEXT
  5
1A4E
  8
BEM1
 62
     4
 10
128.5782363519358
 20
228.5937092494058
 30
0.0
 40
3.0
  1
[.314"]
 50
90.0
 41
0.7
 51
15.0
 72
     1
 11
127.0782363519358
 21
233.49370924940581
 31
0.0
 73
     2
  0
TEXT
  5
1A4F
  8
BEM1
 62
     4
 10
101.48801613436019
 20
241.8466721778575
 30
0.0
 40
3.0
  1
[.610"]
 50
90.0
 41
0.7
 51
15.0
 72
     1
 11
99.98801613436018
 21
246.57167217785749
 31
0.0
 73
     2
  0
LINE
  5
1A86
  8
BEM1
 10
91.191400358715498
 20
256.4236758358727
 30
0.0
 11
104.1993608086285
 21
256.4236758358727
 31
0.0
  0
LINE
  5
1A87
  8
MITTE
 10
92.522610003911907
 20
241.82367583587271
 30
0.0
 11
20.189162964282669
 21
241.82367583587271
 31
0.0
  0
TEXT
  5
1A9C
  8
BEM1
 62
     4
 10
185.57305311905981
 20
241.97601207163419
 30
0.0
 40
3.0
  1
[.618"]
 50
90.0
 41
0.7
 51
15.0
 72
     1
 11
184.07305311905981
 21
246.87601207163419
 31
0.0
 73
     2
  0
TEXT
  5
1A9D
  8
BEM1
 62
     3
 10
185.67520130413149
 20
230.96053856797801
 30
0.0
 40
3.5
  1
15.70
 50
90.0
 41
0.7
 51
15.0
 72
     1
 11
183.92520130413149
 21
235.248038567978
 31
0.0
 73
     2
  0
LINE
  5
1A9E
  8
BEM1
 10
175.95797190489279
 20
225.82367583587271
 30
0.0
 11
187.94612532642029
 21
225.82367583587271
 31
0.0
  0
LINE
  5
1AA0
  8
BEM1
 10
187.42520130413149
 20
255.32367583587279
 30
0.0
 11
187.42520130413149
 21
229.32367583587271
 31
0.0
  0
SOLID
  5
1AA1
  8
BEM1
 10
186.84186797079809
 20
229.32367583587271
 30
0.0
 11
188.00853463746481
 21
229.32367583587271
 31
0.0
 12
187.42520130413149
 22
225.82367583587271
 32
0.0
 13
187.42520130413149
 23
225.82367583587271
 33
0.0
  0
SOLID
  5
1AA2
  8
BEM1
 10
186.84186797079809
 20
253.6092084807899
 30
0.0
 11
188.00853463746481
 21
253.6092084807899
 31
0.0
 12
187.42520130413149
 22
257.1092084807899
 32
0.0
 13
187.42520130413149
 23
257.1092084807899
 33
0.0
  0
LINE
  5
1AA5
  8
BEM1
 10
175.79490043146509
 20
257.1092084807899
 30
0.0
 11
187.94612532642029
 21
257.1092084807899
 31
0.0
  0
TEXT
  5
1AB6
  8
BEM1
 62
     4
 10
107.81636873641889
 20
78.168425904267906
 30
0.0
 40
3.0
  1
[.650"]
 50
90.0
 41
0.65
 51
15.0
 72
     1
 11
106.31636873641889
 21
82.880925904267897
 31
0.0
 73
     2
  0
LINE
  5
1AB7
  8
MITTE
 10
72.753274017653041
 20
102.2524270808314
 30
0.0
 11
72.753274017653041
 21
97.052427080831393
 31
0.0
  0
SOLID
  5
1AB8
  8
BEM1
 10
102.4354905313231
 20
96.152427080831487
 30
0.0
 11
103.6021571979897
 21
96.152427080831487
 31
0.0
 12
103.0188238646564
 22
99.652427080831487
 32
0.0
 13
103.0188238646564
 23
99.652427080831487
 33
0.0
  0
LINE
  5
1AB9
  8
035
  6
PUNKT
 10
83.853274017653177
 20
63.152427080831501
 30
0.0
 11
83.853274017653177
 21
103.1524270808315
 31
0.0
  0
CIRCLE
  5
1ABA
  8
05
 10
59.853274017653
 20
99.652427080831487
 30
0.0
 40
1.5
  0
LINE
  5
1ABB
  8
MITTE
 10
59.853274017653071
 20
102.2524270808314
 30
0.0
 11
59.853274017653071
 21
97.052427080831393
 31
0.0
  0
LINE
  5
1ABC
  8
MITTE
 10
46.953274017653079
 20
102.2524270808315
 30
0.0
 11
46.953274017653079
 21
97.052427080831464
 31
0.0
  0
CIRCLE
  5
1ABD
  8
05
 10
46.95327401765303
 20
99.652427080831487
 30
0.0
 40
1.5
  0
LINE
  5
1ABE
  8
035
  6
PUNKT
 10
38.953274017653087
 20
63.152427080831501
 30
0.0
 11
38.953274017653087
 21
103.1524270808315
 31
0.0
  0
CIRCLE
  5
1ABF
  8
05
 10
72.753274017652984
 20
99.652427080831487
 30
0.0
 40
1.5
  0
LINE
  5
1AC0
  8
035
  6
PUNKT
 10
83.853274017653177
 20
63.152427080831387
 30
0.0
 11
38.953274017653087
 21
63.152427080831387
 31
0.0
  0
LINE
  5
1AC1
  8
MITTE
 10
91.235942002489068
 20
83.152427080831501
 30
0.0
 11
20.391759239902569
 21
83.152427080831501
 31
0.0
  0
POLYLINE
  5
1AC2
  8
035
  6
PUNKT
 66
     1
 10
0.0
 20
0.0
 30
0.0
  0
VERTEX
  5
B96B
  8
035
  6
PUNKT
 10
38.953274017653087
 20
72.652427080831387
 30
0.0
  0
VERTEX
  5
B96C
  8
035
  6
PUNKT
 10
23.95327401765309
 20
72.652427080831387
 30
0.0
  0
VERTEX
  5
B96D
  8
035
  6
PUNKT
 10
21.95327401765309
 20
74.652427080831373
 30
0.0
  0
VERTEX
  5
B96E
  8
035
  6
PUNKT
 10
21.95327401765309
 20
91.652427080831387
 30
0.0
  0
VERTEX
  5
B96F
  8
035
  6
PUNKT
 10
23.95327401765309
 20
93.652427080831387
 30
0.0
  0
VERTEX
  5
B970
  8
035
  6
PUNKT
 10
38.953274017653087
 20
93.652427080831387
 30
0.0
  0
SEQEND
  5
B971
  8
035
  6
PUNKT
  0
LINE
  5
1ACA
  8
MITTE
 10
46.953274017653079
 20
69.252427080831453
 30
0.0
 11
46.953274017653079
 21
64.052427080831393
 31
0.0
  0
LINE
  5
1ACB
  8
MITTE
 10
44.353274017653007
 20
66.652427080831487
 30
0.0
 11
49.553274017653052
 21
66.652427080831487
 31
0.0
  0
CIRCLE
  5
1ACC
  8
05
 10
46.95327401765303
 20
66.652427080831487
 30
0.0
 40
1.5
  0
POLYLINE
  5
1ACD
  8
035
  6
PUNKT
 66
     1
 10
0.0
 20
0.0
 30
0.0
  0
VERTEX
  5
B972
  8
035
  6
PUNKT
 10
83.853274017653177
 20
73.952427080831569
 30
0.0
  0
VERTEX
  5
B973
  8
035
  6
PUNKT
 10
89.453274017653087
 20
73.952427080831569
 30
0.0
  0
VERTEX
  5
B974
  8
035
  6
PUNKT
 10
89.4532740176532
 20
92.352427080831433
 30
0.0
  0
VERTEX
  5
B975
  8
035
  6
PUNKT
 10
83.853274017653177
 20
92.352427080831433
 30
0.0
  0
SEQEND
  5
B976
  8
035
  6
PUNKT
  0
LINE
  5
1AD3
  8
BEM1
 10
103.0188238646564
 20
95.952427080831484
 30
0.0
 11
103.0188238646564
 21
70.35242708083149
 31
0.0
  0
LINE
  5
1AD4
  8
BEM1
 10
76.828974181277545
 20
66.652427080831487
 30
0.0
 11
104.81882386465639
 21
66.652427080831487
 31
0.0
  0
LINE
  5
1AD5
  8
MITTE
 10
57.253274017652977
 20
66.652427080831487
 30
0.0
 11
62.45327401765303
 21
66.652427080831487
 31
0.0
  0
LINE
  5
1AD6
  8
MITTE
 10
59.853274017653071
 20
69.252427080831453
 30
0.0
 11
59.853274017653071
 21
64.052427080831393
 31
0.0
  0
CIRCLE
  5
1AD7
  8
05
 10
59.853274017653
 20
66.652427080831487
 30
0.0
 40
1.5
  0
LINE
  5
1AD8
  8
MITTE
 10
70.153274017652961
 20
66.652427080831487
 30
0.0
 11
75.353274017653007
 21
66.652427080831487
 31
0.0
  0
LINE
  5
1AD9
  8
MITTE
 10
72.753274017653041
 20
69.252427080831453
 30
0.0
 11
72.753274017653041
 21
64.052427080831393
 31
0.0
  0
CIRCLE
  5
1ADA
  8
05
 10
72.753274017652984
 20
66.652427080831487
 30
0.0
 40
1.5
  0
SOLID
  5
1ADB
  8
BEM1
 10
102.4354905313231
 20
70.152427080831487
 30
0.0
 11
103.6021571979897
 21
70.152427080831487
 31
0.0
 12
103.0188238646564
 22
66.652427080831487
 32
0.0
 13
103.0188238646564
 23
66.652427080831487
 33
0.0
  0
TEXT
  5
1ADC
  8
BEM1
 62
     3
 10
101.2688238646564
 20
78.864927080831507
 30
0.0
 40
3.5
  1
16.50
 50
90.0
 41
0.7
 51
15.0
 72
     1
 11
99.51882386465644
 21
83.152427080831501
 31
0.0
 73
     2
  0
LINE
  5
1ADD
  8
BEM1
 10
72.753274017653041
 20
114.3595102069347
 30
0.0
 11
33.31028403140931
 21
114.3595102069347
 31
0.0
  0
TEXT
  5
1ADE
  8
BEM1
 62
     3
 10
49.728274017653071
 20
116.140808563044
 30
0.0
 40
3.5
  1
6.35
 41
0.7
 51
15.0
 72
     1
 11
53.403274017653068
 21
117.890808563044
 31
0.0
 73
     2
  0
TEXT
  5
1ADF
  8
BEM1
 62
     4
 10
48.3585242008675
 20
109.6521850411513
 30
0.0
 40
3.0
  1
[.250"]
 41
0.65
 51
15.0
 72
     1
 11
53.071024200867491
 21
111.1521850411513
 31
0.0
 73
     2
  0
LINE
  5
1AE0
  8
035
  6
PUNKT
 10
83.853274017653177
 20
103.1524270808316
 30
0.0
 11
38.953274017653087
 21
103.1524270808316
 31
0.0
  0
TEXT
  5
1AE1
  8
BEM1
 62
     4
 10
27.548393392443309
 20
109.6521850411513
 30
0.0
 40
3.0
  1
[.157"]
 41
0.65
 51
15.0
 72
     1
 11
32.098393392443313
 21
111.1521850411513
 31
0.0
 73
     2
  0
LINE
  5
1AE2
  8
BEM1
 10
38.953274017653087
 20
104.1524270808316
 30
0.0
 11
38.953274017653087
 21
116.1595102069347
 31
0.0
  0
LINE
  5
1AE3
  8
BEM1
 10
46.953274017653079
 20
102.7347215338346
 30
0.0
 11
46.953274017653079
 21
116.1595102069347
 31
0.0
  0
LINE
  5
1AE4
  8
MITTE
 10
44.353274017653007
 20
99.652427080831544
 30
0.0
 11
49.553274017653052
 21
99.652427080831544
 31
0.0
  0
TEXT
  5
1AE5
  8
BEM1
 62
     3
 10
38.838476276929427
 20
116.1095102069347
 30
0.0
 40
3.5
  1
4.00
 41
0.7
 51
15.0
 72
     1
 11
42.105142943596093
 21
117.8595102069347
 31
0.0
 73
     2
  0
SOLID
  5
1AE6
  8
BEM1
 10
35.453274017653087
 20
114.942843540268
 30
0.0
 11
35.453274017653087
 21
113.7761768736013
 31
0.0
 12
38.953274017653087
 22
114.3595102069347
 32
0.0
 13
38.953274017653087
 23
114.3595102069347
 33
0.0
  0
SOLID
  5
1AE7
  8
BEM1
 10
50.453274017653087
 20
114.942843540268
 30
0.0
 11
50.453274017653087
 21
113.7761768736013
 31
0.0
 12
46.953274017653079
 22
114.3595102069347
 32
0.0
 13
46.953274017653079
 23
114.3595102069347
 33
0.0
  0
LINE
  5
1AE9
  8
BEM1
 10
76.828974181277545
 20
99.652427080831487
 30
0.0
 11
104.81882386465639
 21
99.652427080831487
 31
0.0
  0
TEXT
  5
1AEA
  8
BEM1
 62
     4
 10
61.173669007568812
 20
109.6521850411513
 30
0.0
 40
3.0
  1
[.250"]
 41
0.65
 51
15.0
 72
     1
 11
65.88616900756881
 21
111.1521850411513
 31
0.0
 73
     2
  0
LINE
  5
1AEB
  8
BEM1
 10
59.853274017653071
 20
102.7347215338345
 30
0.0
 11
59.853274017653071
 21
116.1595102069346
 31
0.0
  0
LINE
  5
1AEC
  8
BEM1
 10
72.753274017653041
 20
102.7347215338345
 30
0.0
 11
72.753274017653041
 21
116.1595102069346
 31
0.0
  0
LINE
  5
1AED
  8
MITTE
 10
57.253274017652977
 20
99.652427080831487
 30
0.0
 11
62.45327401765303
 21
99.652427080831487
 31
0.0
  0
SOLID
  5
1AEE
  8
BEM1
 10
75.777025185591057
 20
104.4274063399517
 30
0.0
 11
76.735023880438561
 21
103.76156130409009
 31
0.0
 12
74.258489425429943
 22
101.22048773747829
 32
0.0
 13
74.258489425429943
 23
101.22048773747829
 33
0.0
  0
LINE
  5
1AEF
  8
MITTE
 10
70.153274017652961
 20
99.652427080831487
 30
0.0
 11
75.353274017653007
 21
99.652427080831487
 31
0.0
  0
TEXT
  5
1AF0
  8
BEM1
 62
     3
 10
62.628274017653062
 20
116.08733394399469
 30
0.0
 40
3.5
  1
6.35
 41
0.7
 51
15.0
 72
     1
 11
66.303274017653052
 21
117.83733394399469
 31
0.0
 73
     2
  0
SOLID
  5
1AF1
  8
BEM1
 10
63.353274017653057
 20
114.942843540268
 30
0.0
 11
63.353274017653057
 21
113.7761768736013
 31
0.0
 12
59.853274017653071
 22
114.3595102069347
 32
0.0
 13
59.853274017653071
 23
114.3595102069347
 33
0.0
  0
SOLID
  5
1AF2
  8
BEM1
 10
56.353274017653057
 20
114.942843540268
 30
0.0
 11
56.353274017653057
 21
113.7761768736013
 31
0.0
 12
59.853274017653071
 22
114.3595102069347
 32
0.0
 13
59.853274017653071
 23
114.3595102069347
 33
0.0
  0
SOLID
  5
1AF3
  8
BEM1
 10
69.253274017653041
 20
113.7761768736013
 30
0.0
 11
69.253274017653041
 21
114.942843540268
 31
0.0
 12
72.753274017653041
 22
114.3595102069347
 32
0.0
 13
72.753274017653041
 23
114.3595102069347
 33
0.0
  0
TEXT
  5
1AF4
  8
BEM1
 62
     4
 10
83.410783559070623
 20
109.6521850411513
 30
0.0
 40
3.0
  1
[6x .0590"]
 41
0.65
 51
15.0
 72
     1
 11
91.860783559070626
 21
111.1521850411513
 31
0.0
 73
     2
  0
LINE
  5
1AF5
  8
BEM1
 10
83.313071314902388
 20
114.2666536779862
 30
0.0
 11
99.929682045217575
 21
114.2666536779862
 31
0.0
  0
TEXT
  5
1AF6
  8
BEM1
 62
     3
 10
84.231063379682539
 20
116.1151758138847
 30
0.0
 40
3.5
  1
6x %%c1.50
 41
0.7
 51
15.0
 11
84.231063379682539
 21
117.8651758138848
 31
0.0
 73
     2
  0
LINE
  5
1AF7
  8
BEM1
 10
169.36659433702971
 20
87.229673892037567
 30
0.0
 11
169.36659433702971
 21
115.188395113971
 31
0.0
  0
LINE
  5
1AF8
  8
BEM1
 10
146.5665943370297
 20
87.229673892037567
 30
0.0
 11
146.5665943370297
 21
115.188395113971
 31
0.0
  0
LINE
  5
1AF9
  8
MITTE
 10
144.50259433702971
 20
83.152427080831501
 30
0.0
 11
171.43059433702979
 21
83.152427080831501
 31
0.0
  0
CIRCLE
  5
1AFA
  8
05
 10
157.9665943370297
 20
83.152427080831501
 30
0.0
 40
11.4
  0
LINE
  5
1AFB
  8
MITTE
 10
157.9665943370297
 20
96.299627080831499
 30
0.0
 11
157.9665943370297
 21
70.005227080831446
 31
0.0
  0
LINE
  5
1AFC
  8
BEM1
 10
146.5665943370297
 20
114.2666536779862
 30
0.0
 11
169.36659433702971
 21
114.2666536779862
 31
0.0
  0
TEXT
  5
1AFD
  8
BEM1
 62
     3
 10
152.8624276703631
 20
116.0166536779863
 30
0.0
 40
3.5
  1
%%c11.40
 41
0.7
 51
15.0
 72
     1
 11
157.9665943370297
 21
117.7666536779862
 31
0.0
 73
     2
  0
TEXT
  5
1AFE
  8
BEM1
 62
     4
 10
152.61623240491539
 20
109.6521850411513
 30
0.0
 40
3.0
  1
[.450"]
 41
0.65
 51
15.0
 72
     1
 11
157.3287324049154
 21
111.1521850411513
 31
0.0
 73
     2
  0
SOLID
  5
1AFF
  8
BEM1
 10
150.0665943370297
 20
114.8499870113196
 30
0.0
 11
150.0665943370297
 21
113.6833203446529
 31
0.0
 12
146.5665943370297
 22
114.2666536779862
 32
0.0
 13
146.5665943370297
 23
114.2666536779862
 33
0.0
  0
SOLID
  5
1B00
  8
BEM1
 10
165.86659433702971
 20
114.8499870113196
 30
0.0
 11
165.86659433702971
 21
113.6833203446529
 31
0.0
 12
169.36659433702971
 22
114.2666536779862
 32
0.0
 13
169.36659433702971
 23
114.2666536779862
 33
0.0
  0
LINE
  5
1C78
  8
BEM1
 10
158.3606488782425
 20
257.1092084807899
 30
0.0
 11
173.34239809248589
 21
257.1092084807899
 31
0.0
  0
POLYLINE
  5
24AB
  8
035
 66
     1
 10
0.0
 20
0.0
 30
0.0
  0
VERTEX
  5
B9ED
  8
035
 10
137.64588121342859
 20
217.82367583587271
 30
0.0
  0
VERTEX
  5
B9EE
  8
035
 10
137.64588121342859
 20
219.99249393604461
 30
0.0
 42
0.1514149044328364
  0
VERTEX
  5
B9EF
  8
035
 10
137.47059877590721
 20
220.5580387549046
 30
0.0
 42
-0.3099355376904337
  0
VERTEX
  5
B9F0
  8
035
 10
137.4705987759074
 20
224.5893129168411
 30
0.0
 42
0.1514149044328556
  0
VERTEX
  5
B9F1
  8
035
 10
137.64588121342859
 20
225.1548577357012
 30
0.0
  0
VERTEX
  5
B9F2
  8
035
 10
137.64588121342859
 20
225.82367583587271
 30
0.0
  0
SEQEND
  5
B9F3
  8
035
  0
POLYLINE
  5
24BF
  8
035
 66
     1
 10
0.0
 20
0.0
 30
0.0
  0
VERTEX
  5
B9F4
  8
035
 10
137.64588121342859
 20
219.99249393604461
 30
0.0
  0
VERTEX
  5
B9F5
  8
035
 10
137.64588121342859
 20
217.82367583587271
 30
0.0
  0
VERTEX
  5
B9F6
  8
035
 10
138.44588121342861
 20
217.82367583587271
 30
0.0
  0
VERTEX
  5
B9F7
  8
035
 10
138.44588121342861
 20
219.99249393604461
 30
0.0
 42
0.1514149044328284
  0
VERTEX
  5
B9F8
  8
035
 10
138.13037282589011
 20
221.01047460999251
 30
0.0
 42
-0.309935537690411
  0
VERTEX
  5
B9F9
  8
035
 10
138.13037282589011
 20
224.13687706175281
 30
0.0
 42
0.1514149044328281
  0
VERTEX
  5
B9FA
  8
035
 10
138.44588121342861
 20
225.1548577357008
 30
0.0
  0
VERTEX
  5
B9FB
  8
035
 10
138.44588121342861
 20
225.82367583587271
 30
0.0
  0
SEQEND
  5
B9FC
  8
035
  0
POLYLINE
  5
24CA
  8
035
 66
     1
 10
0.0
 20
0.0
 30
0.0
  0
VERTEX
  5
B9FD
  8
035
 10
171.24588121342859
 20
219.99249393604461
 30
0.0
  0
VERTEX
  5
B9FE
  8
035
 10
171.24588121342859
 20
217.82367583587271
 30
0.0
  0
VERTEX
  5
B9FF
  8
035
 10
170.44588121342861
 20
217.82367583587271
 30
0.0
  0
VERTEX
  5
BA00
  8
035
 10
170.44588121342861
 20
219.99249393604461
 30
0.0
 42
-0.1514149044328284
  0
VERTEX
  5
BA01
  8
035
 10
170.76138960096711
 20
221.01047460999251
 30
0.0
 42
0.309935537690411
  0
VERTEX
  5
BA02
  8
035
 10
170.76138960096711
 20
224.13687706175281
 30
0.0
 42
-0.1514149044328281
  0
VERTEX
  5
BA03
  8
035
 10
170.44588121342861
 20
225.1548577357008
 30
0.0
  0
VERTEX
  5
BA04
  8
035
 10
170.44588121342861
 20
225.82367583587271
 30
0.0
  0
SEQEND
  5
BA05
  8
035
  0
POLYLINE
  5
24D4
  8
035
 66
     1
 10
0.0
 20
0.0
 30
0.0
  0
VERTEX
  5
BA06
  8
035
 10
171.24588121342859
 20
217.82367583587271
 30
0.0
  0
VERTEX
  5
BA07
  8
035
 10
171.24588121342859
 20
219.99249393604461
 30
0.0
 42
-0.1514149044328364
  0
VERTEX
  5
BA08
  8
035
 10
171.42116365095001
 20
220.5580387549046
 30
0.0
 42
0.3099355376904337
  0
VERTEX
  5
BA09
  8
035
 10
171.42116365094981
 20
224.5893129168411
 30
0.0
 42
-0.1514149044328556
  0
VERTEX
  5
BA0A
  8
035
 10
171.24588121342859
 20
225.1548577357012
 30
0.0
  0
VERTEX
  5
BA0B
  8
035
 10
171.24588121342859
 20
225.82367583587271
 30
0.0
  0
SEQEND
  5
BA0C
  8
035
  0
POLYLINE
  5
24DC
  8
025
 66
     1
 10
0.0
 20
0.0
 30
0.0
  0
VERTEX
  5
BA0D
  8
025
 10
170.44588121342869
 20
219.06367583587269
 30
0.0
  0
VERTEX
  5
BA0E
  8
025
 10
171.24588121342859
 20
219.06367583587269
 30
0.0
  0
SEQEND
  5
BA0F
  8
025
  0
LINE
  5
24E3
  8
025
 62
     5
 10
50.116714401802909
 20
224.62198106255329
 30
0.0
 11
48.257868917107572
 21
224.62198106255329
 31
0.0
  0
LINE
  5
24E5
  8
025
 62
     5
 10
50.454467011689189
 20
220.52537060919201
 30
0.0
 11
49.732436474844903
 21
220.52537060919201
 31
0.0
  0
LINE
  5
24E8
  8
025
 62
     5
 10
49.047297084807759
 20
220.52537060919201
 30
0.0
 11
47.821727449776539
 21
220.52537060919201
 31
0.0
  0
LINE
  5
B57E
  8
BEM1
 10
75.463419107001229
 20
102.9511680169918
 30
0.0
 11
83.313071314902388
 21
114.2666536779862
 31
0.0
  0
LINE
  5
B5BB
  8
035
 10
47.827292082986247
 20
219.12367583587269
 30
0.0
 11
47.827292082986247
 21
226.82367583587271
 31
0.0
  0
LINE
  5
B5BC
  8
035
 10
50.427292082986241
 20
219.12367583587269
 30
0.0
 11
50.427292082986241
 21
226.82367583587271
 31
0.0
  0
ARC
  5
B5BD
  8
035
 10
49.127292082986251
 20
219.12367583587269
 30
0.0
 40
1.300000000000004
 50
180.0
 51
0.0
  0
LINE
  5
B5BE
  8
035
 10
46.177292082986263
 20
226.82367583587271
 30
0.0
 11
47.827292082986247
 21
226.82367583587271
 31
0.0
  0
LINE
  5
B5BF
  8
035
 10
52.077292082986233
 20
226.82367583587271
 30
0.0
 11
50.427292082986241
 21
226.82367583587271
 31
0.0
  0
LINE
  5
B5C0
  8
025
 62
     5
 10
62.816714401802948
 20
224.62198106255329
 30
0.0
 11
60.957868917107618
 21
224.62198106255329
 31
0.0
  0
ARC
  5
B5C1
  8
035
 10
61.82729208298629
 20
219.12367583587269
 30
0.0
 40
1.300000000000004
 50
180.0
 51
0.0
  0
LINE
  5
B5C2
  8
035
 10
60.527292082986293
 20
219.12367583587269
 30
0.0
 11
60.527292082986293
 21
226.82367583587271
 31
0.0
  0
LINE
  5
B5C3
  8
025
 62
     5
 10
61.747297084807812
 20
220.52537060919201
 30
0.0
 11
60.521727449776591
 21
220.52537060919201
 31
0.0
  0
LINE
  5
B5C4
  8
035
 10
58.877292082986301
 20
226.82367583587271
 30
0.0
 11
60.527292082986293
 21
226.82367583587271
 31
0.0
  0
LINE
  5
B5C5
  8
035
 10
63.127292082986287
 20
219.12367583587269
 30
0.0
 11
63.127292082986287
 21
226.82367583587271
 31
0.0
  0
LINE
  5
B5C6
  8
025
 62
     5
 10
63.154467011689228
 20
220.52537060919201
 30
0.0
 11
62.432436474844948
 21
220.52537060919201
 31
0.0
  0
LINE
  5
B5C7
  8
035
 10
64.777292082986278
 20
226.82367583587271
 30
0.0
 11
63.127292082986287
 21
226.82367583587271
 31
0.0
  0
LINE
  5
B5C8
  8
025
 62
     5
 10
75.516714401802886
 20
224.6219810625534
 30
0.0
 11
73.657868917107535
 21
224.6219810625534
 31
0.0
  0
ARC
  5
B5C9
  8
035
 10
74.527292082986222
 20
219.12367583587269
 30
0.0
 40
1.300000000000004
 50
180.0
 51
0.0
  0
LINE
  5
B5CA
  8
035
 10
73.227292082986224
 20
219.12367583587269
 30
0.0
 11
73.227292082986224
 21
226.82367583587279
 31
0.0
  0
LINE
  5
B5CB
  8
025
 62
     5
 10
74.447297084807744
 20
220.52537060919209
 30
0.0
 11
73.221727449776523
 21
220.52537060919209
 31
0.0
  0
LINE
  5
B5CC
  8
035
 10
71.577292082986233
 20
226.82367583587271
 30
0.0
 11
73.227292082986224
 21
226.82367583587271
 31
0.0
  0
LINE
  5
B5CD
  8
035
 10
75.827292082986219
 20
219.12367583587269
 30
0.0
 11
75.827292082986219
 21
226.82367583587279
 31
0.0
  0
LINE
  5
B5CE
  8
025
 62
     5
 10
75.854467011689167
 20
220.52537060919209
 30
0.0
 11
75.13243647484488
 21
220.52537060919209
 31
0.0
  0
LINE
  5
B5CF
  8
035
 10
77.47729208298621
 20
226.82367583587271
 30
0.0
 11
75.827292082986219
 21
226.82367583587271
 31
0.0
  0
POLYLINE
  5
B6C5
  8
05
 66
     1
 10
0.0
 20
0.0
 30
0.0
 70
     1
  0
VERTEX
  5
BA14
  8
05
 10
35.785583576199173
 20
257.01875673383239
 30
0.0
  0
VERTEX
  5
BA15
  8
05
 10
35.785583576199173
 20
226.63169103171299
 30
0.0
  0
VERTEX
  5
BA16
  8
05
 10
38.93754554237659
 20
226.63169103171299
 30
0.0
  0
VERTEX
  5
BA17
  8
05
 10
38.93754554237659
 20
257.01875673383239
 30
0.0
  0
SEQEND
  5
BA18
  8
05
  0
POLYLINE
  5
B6C6
  8
05
 66
     1
 10
0.0
 20
0.0
 30
0.0
 70
     1
  0
VERTEX
  5
BA19
  8
05
 10
31.682979225684651
 20
257.01875673383239
 30
0.0
  0
VERTEX
  5
BA1A
  8
05
 10
31.682979225684651
 20
226.63169103171299
 30
0.0
  0
VERTEX
  5
BA1B
  8
05
 10
34.8349411918621
 20
226.63169103171299
 30
0.0
  0
VERTEX
  5
BA1C
  8
05
 10
34.8349411918621
 20
257.01875673383239
 30
0.0
  0
SEQEND
  5
BA1D
  8
05
  0
POLYLINE
  5
B6C7
  8
05
 66
     1
 10
0.0
 20
0.0
 30
0.0
 70
     1
  0
VERTEX
  5
BA1E
  8
05
 10
30.250592133468981
 20
257.12367583587258
 30
0.0
  0
VERTEX
  5
BA1F
  8
05
 10
29.631018597824308
 20
257.12367583587258
 30
0.0
  0
VERTEX
  5
BA20
  8
05
 10
27.52225119039252
 20
252.72570710405361
 30
0.0
  0
VERTEX
  5
BA21
  8
05
 10
27.52225119039252
 20
231.13457886557239
 30
0.0
  0
VERTEX
  5
BA22
  8
05
 10
29.631018597824308
 20
226.73661013375329
 30
0.0
  0
VERTEX
  5
BA23
  8
05
 10
30.250592133468981
 20
226.73661013375329
 30
0.0
  0
SEQEND
  5
BA24
  8
05
  0
LINE
  5
B6C8
  8
025
 10
29.631018597824301
 20
257.12367583587258
 30
0.0
 11
29.631018597824301
 21
255.10351551362109
 31
0.0
  0
ARC
  5
B6C9
  8
05
 10
98.819216471644665
 20
241.8249721035491
 30
0.0
 40
76.441924388658464
 50
172.17050361650331
 51
187.82949638349649
  0
POLYLINE
  5
B6CA
  8
010
 66
     1
 10
0.0
 20
0.0
 30
0.0
  0
VERTEX
  5
BA25
  8
010
 10
24.260365610188881
 20
252.72497210354879
 30
0.0
 42
0.2160186508206791
  0
VERTEX
  5
BA26
  8
010
 10
24.260365610188881
 20
241.8249721035487
 30
0.0
 42
0.2160186508206876
  0
VERTEX
  5
BA27
  8
010
 10
24.260365610188469
 20
230.9249721035504
 30
0.0
 42
0.2160186508206876
  0
SEQEND
  5
BA28
  8
010
  0
POLYLINE
  5
B6CB
  8
05
 66
     1
 10
0.0
 20
0.0
 30
0.0
  0
VERTEX
  5
BA29
  8
05
 10
26.315346235690591
 20
230.92497210354921
 30
0.0
  0
VERTEX
  5
BA2A
  8
05
 10
23.576548770395949
 20
230.92497210354921
 30
0.0
  0
VERTEX
  5
BA2B
  8
05
 10
23.08989581153142
 20
231.41162506241369
 30
0.0
  0
VERTEX
  5
BA2C
  8
05
 10
23.08989581153142
 20
252.23831914468471
 30
0.0
  0
VERTEX
  5
BA2D
  8
05
 10
23.57654877039554
 20
252.72497210354919
 30
0.0
  0
VERTEX
  5
BA2E
  8
05
 10
26.315346235690591
 20
252.72497210354919
 30
0.0
  0
SEQEND
  5
BA2F
  8
05
  0
LINE
  5
B6CC
  8
05
 10
26.31534623569058
 20
252.72497210354919
 30
0.0
 11
26.31534623569058
 21
230.92497210354921
 31
0.0
  0
LINE
  5
B6CD
  8
05
 10
27.52225119039252
 20
234.0805122368464
 30
0.0
 11
26.31534623569058
 21
234.0805122368464
 31
0.0
  0
LINE
  5
B6CE
  8
05
 10
31.682979225684679
 20
234.0805122368464
 30
0.0
 11
30.250592133468981
 21
234.0805122368462
 31
0.0
  0
LINE
  5
B6CF
  8
05
 10
27.52225119039252
 20
249.56993552869909
 30
0.0
 11
26.31534623569058
 21
249.56993552869909
 31
0.0
  0
LINE
  5
B6D0
  8
05
 10
31.682979225684679
 20
249.56993552869909
 30
0.0
 11
30.250592133468981
 21
249.56993552869881
 31
0.0
  0
LINE
  5
B6D1
  8
05
 10
35.785583576199151
 20
232.6520642556697
 30
0.0
 11
34.8349411918621
 21
232.6520642556697
 31
0.0
  0
LINE
  5
B6D2
  8
05
 10
35.785583576199151
 20
250.9983835098752
 30
0.0
 11
34.8349411918621
 21
250.9983835098752
 31
0.0
  0
POLYLINE
  5
B701
  8
05
 66
     1
 10
0.0
 20
0.0
 30
0.0
 70
     1
  0
VERTEX
  5
BA30
  8
05
 10
148.15276327926171
 20
252.72367583587271
 30
0.0
  0
VERTEX
  5
BA31
  8
05
 10
141.8596453450948
 20
241.82367583587271
 30
0.0
  0
VERTEX
  5
BA32
  8
05
 10
148.15276327926171
 20
230.9236758358727
 30
0.0
  0
VERTEX
  5
BA33
  8
05
 10
160.73899914759551
 20
230.9236758358727
 30
0.0
  0
VERTEX
  5
BA34
  8
05
 10
167.03211708176249
 20
241.82367583587271
 30
0.0
  0
VERTEX
  5
BA35
  8
05
 10
160.73899914759559
 20
252.72367583587271
 30
0.0
  0
SEQEND
  5
BA36
  8
05
  0
CIRCLE
  5
B702
  8
05
 10
154.44588121342861
 20
241.82367583587271
 30
0.0
 40
15.300000000000001
  0
POLYLINE
  5
B706
  8
05
 66
     1
 10
0.0
 20
0.0
 30
0.0
 70
     1
  0
VERTEX
  5
BA37
  8
05
 10
31.682979225684651
 20
193.580762525094
 30
0.0
  0
VERTEX
  5
BA38
  8
05
 10
31.682979225684651
 20
163.19369682297449
 30
0.0
  0
VERTEX
  5
BA39
  8
05
 10
34.8349411918621
 20
163.19369682297449
 30
0.0
  0
VERTEX
  5
BA3A
  8
05
 10
34.8349411918621
 20
193.580762525094
 30
0.0
  0
SEQEND
  5
BA3B
  8
05
  0
POLYLINE
  5
B707
  8
05
 66
     1
 10
0.0
 20
0.0
 30
0.0
 70
     1
  0
VERTEX
  5
BA3C
  8
05
 10
30.250592133468981
 20
193.68568162713419
 30
0.0
  0
VERTEX
  5
BA3D
  8
05
 10
29.631018597824308
 20
193.68568162713419
 30
0.0
  0
VERTEX
  5
BA3E
  8
05
 10
27.52225119039252
 20
189.28771289531511
 30
0.0
  0
VERTEX
  5
BA3F
  8
05
 10
27.52225119039252
 20
167.69658465683389
 30
0.0
  0
VERTEX
  5
BA40
  8
05
 10
29.631018597824308
 20
163.29861592501479
 30
0.0
  0
VERTEX
  5
BA41
  8
05
 10
30.250592133468981
 20
163.29861592501479
 30
0.0
  0
SEQEND
  5
BA42
  8
05
  0
POLYLINE
  5
B708
  8
05
 66
     1
 10
0.0
 20
0.0
 30
0.0
  0
VERTEX
  5
BA43
  8
05
 10
26.315346235690591
 20
167.48697789481071
 30
0.0
  0
VERTEX
  5
BA44
  8
05
 10
23.576548770395949
 20
167.48697789481071
 30
0.0
  0
VERTEX
  5
BA45
  8
05
 10
23.08989581153142
 20
167.97363085367519
 30
0.0
  0
VERTEX
  5
BA46
  8
05
 10
23.08989581153142
 20
188.80032493594621
 30
0.0
  0
VERTEX
  5
BA47
  8
05
 10
23.57654877039554
 20
189.28697789481069
 30
0.0
  0
VERTEX
  5
BA48
  8
05
 10
26.315346235690591
 20
189.28697789481069
 30
0.0
  0
SEQEND
  5
BA49
  8
05
  0
LINE
  5
B709
  8
05
 10
26.315346235690601
 20
189.28697789481069
 30
0.0
 11
26.315346235690601
 21
167.48697789481071
 31
0.0
  0
LINE
  5
B70A
  8
025
 10
29.631018597824301
 20
193.68568162713419
 30
0.0
 11
29.631018597824301
 21
163.29861592501479
 31
0.0
  0
POLYLINE
  5
B70B
  8
010
 66
     1
 10
0.0
 20
0.0
 30
0.0
  0
VERTEX
  5
BA4A
  8
010
 10
24.260365610188881
 20
189.28697789481029
 30
0.0
 42
0.2160186508206791
  0
VERTEX
  5
BA4B
  8
010
 10
24.260365610188881
 20
178.3869778948102
 30
0.0
 42
0.2160186508206876
  0
VERTEX
  5
BA4C
  8
010
 10
24.260365610188469
 20
167.48697789481199
 30
0.0
 42
0.2160186508206876
  0
SEQEND
  5
BA4D
  8
010
  0
ARC
  5
B70C
  8
05
 10
98.819216471644665
 20
178.3869778948106
 30
0.0
 40
76.441924388658464
 50
172.17050361650331
 51
187.82949638349649
  0
LINE
  5
B70D
  8
05
 10
27.52225119039252
 20
170.6425180281079
 30
0.0
 11
26.315346235690601
 21
170.6425180281079
 31
0.0
  0
LINE
  5
B70E
  8
05
 10
31.682979225684679
 20
170.6425180281079
 30
0.0
 11
30.250592133468981
 21
170.6425180281077
 31
0.0
  0
LINE
  5
B70F
  8
05
 10
35.785583576199159
 20
169.21407004693131
 30
0.0
 11
34.8349411918621
 21
169.21407004693131
 31
0.0
  0
LINE
  5
B710
  8
05
 10
34.617474396171623
 20
178.38714198210661
 30
0.0
 11
27.424281449402859
 21
178.38714198210661
 31
0.0
  0
LINE
  5
B711
  8
05
 10
27.52225119039252
 20
186.13194131996059
 30
0.0
 11
26.315346235690601
 21
186.13194131996059
 31
0.0
  0
LINE
  5
B712
  8
05
 10
31.682979225684679
 20
186.13194131996059
 30
0.0
 11
30.250592133468981
 21
186.1319413199603
 31
0.0
  0
LINE
  5
B713
  8
05
 10
35.785583576199159
 20
187.56038930113681
 30
0.0
 11
34.8349411918621
 21
187.56038930113681
 31
0.0
  0
POLYLINE
  5
B714
  8
05
 66
     1
 10
0.0
 20
0.0
 30
0.0
 70
     1
  0
VERTEX
  5
BA4E
  8
05
 10
35.785583576199173
 20
193.580762525094
 30
0.0
  0
VERTEX
  5
BA4F
  8
05
 10
35.785583576199173
 20
163.19369682297449
 30
0.0
  0
VERTEX
  5
BA50
  8
05
 10
38.93754554237659
 20
163.19369682297449
 30
0.0
  0
VERTEX
  5
BA51
  8
05
 10
38.93754554237659
 20
193.580762525094
 30
0.0
  0
SEQEND
  5
BA52
  8
05
  0
LINE
  5
B715
  8
05
 10
39.377292082986187
 20
169.21283139845539
 30
0.0
 11
38.937545542376583
 21
169.21283139845499
 31
0.0
  0
LINE
  5
B716
  8
025
 10
38.937545542376583
 20
170.9603191286744
 30
0.0
 11
39.377292082986187
 21
170.9603191286742
 31
0.0
  0
LINE
  5
B717
  8
025
 10
38.937545542376583
 20
185.8139648355388
 30
0.0
 11
39.377292082986187
 21
185.81396483553891
 31
0.0
  0
LINE
  5
B718
  8
05
 10
39.377292082986187
 20
187.56145256575849
 30
0.0
 11
38.937545542376583
 21
187.56145256575809
 31
0.0
  0
LINE
  5
B724
  8
BEM1
 10
141.3596453450948
 20
240.9576504320882
 30
0.0
 11
125.5694275197217
 21
213.60819089596231
 31
0.0
  0
LINE
  5
B725
  8
BEM1
 10
160.23899914759559
 20
230.05765043208831
 30
0.0
 11
144.44878132222249
 21
202.7081908959623
 31
0.0
  0
LINE
  5
B726
  8
BEM1
 10
129.20051643296719
 20
212.8974213805036
 30
0.0
 11
142.0176924089769
 21
205.4974213805036
 31
0.0
  0
SOLID
  5
B727
  8
BEM1
 10
129.49218309963391
 20
213.4026028660445
 30
0.0
 11
128.90884976630059
 21
212.39223989496259
 31
0.0
 12
126.16942751972169
 22
214.6474213805036
 32
0.0
 13
126.16942751972169
 23
214.6474213805036
 33
0.0
  0
SOLID
  5
B728
  8
BEM1
 10
142.30935907564361
 20
206.0026028660445
 30
0.0
 11
141.72602574231021
 21
204.99223989496269
 31
0.0
 12
145.0487813222224
 22
203.7474213805036
 32
0.0
 13
145.0487813222224
 23
203.7474213805036
 33
0.0
  0
INSERT
  5
B729
  8
BEM1
  2
*U5
 10
0.0
 20
0.0
 30
0.0
  0
TEXT
  5
B743
  8
035
 10
11.65637158442699
 20
130.74720324109489
 30
0.0
 40
3.0
  1
PCB-Layout (component side)
  7
ARIAL
  0
TEXT
  5
B744
  8
035
 10
11.65637158442699
 20
136.74720324109489
 30
0.0
 40
3.5
  1
Print-Bohrplan (Bestückungsseite)
  7
ARIAL
  0
TEXT
  5
B745
  8
035
 10
114.9339502815107
 20
130.20590039351981
 30
0.0
 40
3.0
  1
Panel cut out (rear side)
  7
ARIAL
  0
TEXT
  5
B746
  8
035
 10
114.9339502815107
 20
137.20590039351981
 30
0.0
 40
3.5
  1
Frontplattenausschnitt (Rückseite)
  7
ARIAL
  0
LINE
  5
B764
  8
035
 10
43.877292574247022
 20
253.02367583587269
 30
0.0
 11
54.377292574247022
 21
253.02367583587269
 31
0.0
  0
LINE
  5
B765
  8
035
 10
56.577292574247068
 20
253.02367583587269
 30
0.0
 11
67.077292574247053
 21
253.02367583587269
 31
0.0
  0
LINE
  5
B766
  8
035
 10
69.277292574247113
 20
253.02367583587269
 30
0.0
 11
79.777292574247113
 21
253.02367583587269
 31
0.0
  0
LINE
  5
B767
  8
035
 10
165.65334283404599
 20
252.2391836978249
 30
0.0
 11
168.94540824736339
 21
252.9758462493443
 31
0.0
  0
LINE
  5
B768
  8
035
 10
166.2533872931175
 20
251.55367070627781
 30
0.0
 11
169.12010324030189
 21
252.1951531858154
 31
0.0
  0
POLYLINE
  5
B769
  8
035
 66
     1
 10
0.0
 20
0.0
 30
0.0
  0
VERTEX
  5
BA57
  8
035
 10
171.4869341396049
 20
250.32633204270491
 30
0.0
 42
0.1181822769953935
  0
VERTEX
  5
BA58
  8
035
 10
171.1772543608873
 20
251.87315248505021
 30
0.0
 42
0.3531951765162725
  0
VERTEX
  5
BA59
  8
035
 10
168.94540824736339
 20
252.9758462493443
 30
0.0
 42
0.3531951765162725
  0
SEQEND
  5
BA5A
  8
035
  0
POLYLINE
  5
B76A
  8
035
 66
     1
 10
0.0
 20
0.0
 30
0.0
  0
VERTEX
  5
BA5B
  8
035
 10
170.6875020291958
 20
250.35647007261639
 30
0.0
 42
0.1181822769953939
  0
VERTEX
  5
BA5C
  8
035
 10
170.45104022509079
 20
251.53757383708609
 30
0.0
 42
0.3531951765162764
  0
VERTEX
  5
BA5D
  8
035
 10
169.12010324030189
 20
252.1951531858154
 30
0.0
 42
0.3531951765162764
  0
SEQEND
  5
BA5E
  8
035
  0
LINE
  5
B76B
  8
035
 10
171.2894231820066
 20
245.08721713959841
 30
0.0
 11
171.48693413960481
 21
250.32633204270351
 31
0.0
  0
LINE
  5
B76C
  8
035
 10
170.51888896628461
 20
245.88389183443351
 30
0.0
 11
170.6875020291958
 21
250.35647007261539
 31
0.0
  0
LINE
  5
B770
  8
025
 10
29.631018597824301
 20
253.6552827101977
 30
0.0
 11
29.631018597824301
 21
250.05427487378191
 31
0.0
  0
LINE
  5
B771
  8
025
 10
29.631018597824301
 20
249.07573988346451
 30
0.0
 11
29.631018597824301
 21
226.73661013375329
 31
0.0
  0
INSERT
  5
B850
  8
035
 66
     1
  2
ZKOPF-REAN
 10
205.00000024762139
 20
4.9999998912246468
 30
0.0
 41
0.9999999999999998
 42
0.9999999999999998
 43
0.9999999999999998
  0
ATTRIB
  5
B851
  8
0
 62
     4
 10
189.8333335809547
 20
41.99999989122464
 30
0.0
 40
2.5
  1
Battlogg
  7
SCRIPTS
 72
     1
 11
196.50000024762139
 21
41.99999989122464
 31
0.0
  2
NAME
 70
     0
  0
ATTRIB
  5
B852
  8
0
 62
     4
 10
175.25000024762139
 20
41.99999989122464
 30
0.0
 40
2.5
  1
06.02.98
 41
0.7
 51
15.0
 72
     1
 11
180.50000024762139
 21
41.99999989122464
 31
0.0
  2
DATE
 70
     0
  0
ATTRIB
  5
B853
  8
0
 62
     4
 10
124.5000002476214
 20
40.99999989122464
 30
0.0
 40
2.5
  1

 41
0.7
 51
15.0
 72
     1
 11
124.5000002476214
 21
40.99999989122464
 31
0.0
  2
WERKSTOFF
 70
     0
  0
ATTRIB
  5
B854
  8
0
 62
     2
 10
101.9166669142881
 20
17.49999989122464
 30
0.0
 40
5.0
  1
NYS 215
 41
0.7
 51
15.0
 72
     1
 11
113.0000002476214
 21
17.49999989122464
 31
0.0
  2
BENENNUNG
 70
     0
  0
ATTRIB
  5
B855
  8
0
 62
     3
 10
98.809543645742792
 20
26.082191341751582
 30
0.0
 40
3.5
  1
1/4" Phone Jack
 41
0.7
 51
15.0
 72
     1
 11
115.9595436457428
 21
26.082191341751582
 31
0.0
  2
TEIL
 70
     0
  0
ATTRIB
  5
B856
  8
0
 62
     3
 10
169.74978116504499
 20
6.9765409077624421
 30
0.0
 40
3.5
  1
3102 ST 22 08
 41
0.7
 51
15.0
 72
     1
 11
184.44978116504501
 21
6.9765409077624421
 31
0.0
  2
NUMMER
 70
     0
  0
ATTRIB
  5
B857
  8
0
 62
     2
 10
141.51732861014531
 20
39.656056124159178
 30
0.0
 40
5.0
  1
2:1
 41
0.7
 51
15.0
 72
     1
 11
144.43399527681191
 21
39.656056124159178
 31
0.0
  2
MASS
 70
     0
  0
ATTRIB
  5
B858
  8
0
 62
     3
 10
144.51929930164141
 20
33.210450430399938
 30
0.0
 40
3.5
  1

 41
0.7
 51
15.0
 72
     1
 11
144.51929930164141
 21
33.210450430399938
 31
0.0
  2
MASS2
 70
     0
  0
ATTRIB
  5
B859
  8
0
 62
     4
 10
124.0000002476214
 20
33.999999891224647
 30
0.0
 40
2.5
  1

 41
0.7
 51
15.0
 72
     1
 11
124.0000002476214
 21
33.999999891224647
 31
0.0
  2
TEIL
 70
     0
  0
ATTRIB
  5
B85A
  8
0
 62
     3
 10
97.288548307059614
 20
64.004318638654084
 30
0.0
 40
3.5
  1

 41
0.7
 51
15.0
  2
TOL
 70
     0
  0
ATTRIB
  5
B85B
  8
0
 62
     3
 10
97.288548307059614
 20
59.004318638654077
 30
0.0
 40
3.5
  1

 41
0.7
 51
15.0
  2
RADIEN
 70
     0
  0
ATTRIB
  5
B85C
  8
0
 62
     3
 10
97.288548307059614
 20
54.004318638654077
 30
0.0
 40
3.5
  1

 41
0.7
 51
15.0
  2
FACETTE
 70
     0
  0
ATTRIB
  5
B85D
  8
0
 62
     4
 10
7.8137329892387903
 20
11.99999989122464
 30
0.0
 40
2.5
  1
A
 41
0.7
 51
15.0
  2
INDEX1
 70
     0
  0
ATTRIB
  5
B85E
  8
0
 62
     4
 10
14.65125764407113
 20
11.99999989122464
 30
0.0
 40
2.5
  1
Drop
 41
0.7
 51
15.0
  2
A1
 70
     0
  0
ATTRIB
  5
B85F
  8
0
 62
     4
 10
47.651257644071123
 20
11.99999989122464
 30
0.0
 40
2.5
  1
23.4.08
 41
0.7
 51
15.0
  2
DATUM1
 70
     0
  0
ATTRIB
  5
B860
  8
0
 62
     4
 10
60.535010109554428
 20
11.99999989122464
 30
0.0
 40
2.5
  1
NB
 41
0.7
 51
15.0
  2
NAME1
 70
     0
  0
ATTRIB
  5
B861
  8
0
 62
     4
 10
7.8137329892387903
 20
16.99999989122465
 30
0.0
 40
2.5
  1

 41
0.7
 51
15.0
  2
INDEX2
 70
     0
  0
ATTRIB
  5
B862
  8
0
 62
     4
 10
14.65125764407113
 20
16.99999989122465
 30
0.0
 40
2.5
  1

 41
0.7
 51
15.0
  2
A2
 70
     0
  0
ATTRIB
  5
B863
  8
0
 62
     4
 10
47.651257644071123
 20
16.99999989122465
 30
0.0
 40
2.5
  1

 41
0.7
 51
15.0
  2
DATUM2
 70
     0
  0
ATTRIB
  5
B864
  8
0
 62
     4
 10
60.535010109554428
 20
16.99999989122465
 30
0.0
 40
2.5
  1

 41
0.7
 51
15.0
  2
NAME2
 70
     0
  0
ATTRIB
  5
B865
  8
0
 62
     4
 10
7.8137329892387903
 20
21.99999989122465
 30
0.0
 40
2.5
  1

 41
0.7
 51
15.0
  2
INDEX3
 70
     0
  0
ATTRIB
  5
B866
  8
0
 62
     4
 10
14.65125764407113
 20
21.99999989122465
 30
0.0
 40
2.5
  1

 41
0.7
 51
15.0
  2
A3
 70
     0
  0
ATTRIB
  5
B867
  8
0
 62
     4
 10
47.651257644071123
 20
21.99999989122465
 30
0.0
 40
2.5
  1

 41
0.7
 51
15.0
  2
DATUM3
 70
     0
  0
ATTRIB
  5
B868
  8
0
 62
     4
 10
60.535010109554428
 20
21.99999989122465
 30
0.0
 40
2.5
  1

 41
0.7
 51
15.0
  2
NAME3
 70
     0
  0
ATTRIB
  5
B869
  8
0
 62
     4
 10
7.8137329892387903
 20
26.99999989122465
 30
0.0
 40
2.5
  1

 41
0.7
 51
15.0
  2
INDEX4
 70
     0
  0
ATTRIB
  5
B86A
  8
0
 62
     4
 10
14.65125764407113
 20
26.99999989122465
 30
0.0
 40
2.5
  1

 41
0.7
 51
15.0
  2
A4
 70
     0
  0
ATTRIB
  5
B86B
  8
0
 62
     4
 10
47.651257644071123
 20
26.99999989122465
 30
0.0
 40
2.5
  1

 41
0.7
 51
15.0
  2
DATUM4
 70
     0
  0
ATTRIB
  5
B86C
  8
0
 62
     4
 10
60.535010109554428
 20
26.99999989122465
 30
0.0
 40
2.5
  1

 41
0.7
 51
15.0
  2
NAME4
 70
     0
  0
ATTRIB
  5
B86D
  8
0
 62
     4
 10
7.8137329892387903
 20
31.99999989122464
 30
0.0
 40
2.5
  1

 41
0.7
 51
15.0
  2
INDEX5
 70
     0
  0
ATTRIB
  5
B86E
  8
0
 62
     4
 10
14.65125764407113
 20
31.99999989122464
 30
0.0
 40
2.5
  1

 41
0.7
 51
15.0
  2
A5
 70
     0
  0
ATTRIB
  5
B86F
  8
0
 62
     4
 10
47.651257644071123
 20
31.99999989122464
 30
0.0
 40
2.5
  1

 41
0.7
 51
15.0
  2
DATUM5
 70
     0
  0
ATTRIB
  5
B870
  8
0
 62
     4
 10
60.535010109554428
 20
31.99999989122464
 30
0.0
 40
2.5
  1

 41
0.7
 51
15.0
  2
NAME5
 70
     0
  0
ATTRIB
  5
B871
  8
0
 62
     4
 10
7.8137329892387903
 20
36.999999891224647
 30
0.0
 40
2.5
  1

 41
0.7
 51
15.0
  2
INDEX6
 70
     0
  0
ATTRIB
  5
B872
  8
0
 62
     4
 10
14.65125764407113
 20
36.999999891224647
 30
0.0
 40
2.5
  1

 41
0.7
 51
15.0
  2
A6
 70
     0
  0
ATTRIB
  5
B873
  8
0
 62
     4
 10
47.651257644071123
 20
36.999999891224647
 30
0.0
 40
2.5
  1

 41
0.7
 51
15.0
  2
DATUM6
 70
     0
  0
ATTRIB
  5
B874
  8
0
 62
     4
 10
60.535010109554428
 20
36.999999891224647
 30
0.0
 40
2.5
  1

 41
0.7
 51
15.0
  2
NAME6
 70
     0
  0
ATTRIB
  5
B875
  8
0
 62
     4
 10
7.8137329892387903
 20
41.99999989122464
 30
0.0
 40
2.5
  1

 41
0.7
 51
15.0
  2
INDEX7
 70
     0
  0
ATTRIB
  5
B876
  8
0
 62
     4
 10
14.65125764407113
 20
41.99999989122464
 30
0.0
 40
2.5
  1

 41
0.7
 51
15.0
  2
A7
 70
     0
  0
ATTRIB
  5
B877
  8
0
 62
     4
 10
47.651257644071123
 20
41.99999989122464
 30
0.0
 40
2.5
  1

 41
0.7
 51
15.0
  2
DATUM7
 70
     0
  0
ATTRIB
  5
B878
  8
0
 62
     4
 10
60.535010109554428
 20
41.99999989122464
 30
0.0
 40
2.5
  1

 41
0.7
 51
15.0
  2
NAME7
 70
     0
  0
ATTRIB
  5
B879
  8
0
 62
     4
 10
7.8137329892387903
 20
46.999999891224633
 30
0.0
 40
2.5
  1

 41
0.7
 51
15.0
  2
INDEX8
 70
     0
  0
ATTRIB
  5
B87A
  8
0
 62
     4
 10
14.65125764407113
 20
46.999999891224633
 30
0.0
 40
2.5
  1

 41
0.7
 51
15.0
  2
A8
 70
     0
  0
ATTRIB
  5
B87B
  8
0
 62
     4
 10
47.651257644071123
 20
46.999999891224633
 30
0.0
 40
2.5
  1

 41
0.7
 51
15.0
  2
DATUM8
 70
     0
  0
ATTRIB
  5
B87C
  8
0
 62
     4
 10
60.535010109554428
 20
46.999999891224633
 30
0.0
 40
2.5
  1

 41
0.7
 51
15.0
  2
NAME8
 70
     0
  0
SEQEND
  5
B87D
  8
035
  0
ENDSEC
  0
EOF
