  0
SECTION
  2
HEADER
  9
$ACADVER
  1
AC1009
  9
$INSBASE
 10
0.0
 20
0.0
 30
0.0
  9
$EXTMIN
 10
0.0
 20
0.0
 30
0.0
  9
$EXTMAX
 10
210.0
 20
297.0
 30
0.0
  9
$LIMMIN
 10
0.0
 20
0.0
  9
$LIMMAX
 10
410.0
 20
287.0
  9
$ORTHOMODE
 70
     0
  9
$REGENMODE
 70
     1
  9
$FILLMODE
 70
     1
  9
$QTEXTMODE
 70
     0
  9
$MIRRTEXT
 70
     1
  9
$DRAGMODE
 70
     2
  9
$LTSCALE
 40
3.0
  9
$OSMODE
 70
    33
  9
$ATTMODE
 70
     1
  9
$TEXTSIZE
 40
3.5
  9
$TRACEWID
 40
26.0
  9
$TEXTSTYLE
  7
STANDARD
  9
$CLAYER
  8
010
  9
$CELTYPE
  6
BYLAYER
  9
$CECOLOR
 62
   256
  9
$DIMSCALE
 40
1.0
  9
$DIMASZ
 40
3.5
  9
$DIMEXO
 40
1.0
  9
$DIMDLI
 40
8.0
  9
$DIMRND
 40
0.0
  9
$DIMDLE
 40
0.0
  9
$DIMEXE
 40
1.2
  9
$DIMTP
 40
0.0
  9
$DIMTM
 40
0.0
  9
$DIMTXT
 40
3.5
  9
$DIMCEN
 40
0.0
  9
$DIMTSZ
 40
0.0
  9
$DIMTOL
 70
     0
  9
$DIMLIM
 70
     0
  9
$DIMTIH
 70
     0
  9
$DIMTOH
 70
     0
  9
$DIMSE1
 70
     0
  9
$DIMSE2
 70
     0
  9
$DIMTAD
 70
     1
  9
$DIMZIN
 70
     0
  9
$DIMBLK
  1

  9
$DIMASO
 70
     0
  9
$DIMSHO
 70
     0
  9
$DIMPOST
  1

  9
$DIMAPOST
  1
"
  9
$DIMALT
 70
     0
  9
$DIMALTD
 70
     3
  9
$DIMALTF
 40
0.03937
  9
$DIMLFAC
 40
1.0
  9
$DIMTOFL
 70
     0
  9
$DIMTVP
 40
0.0
  9
$DIMTIX
 70
     1
  9
$DIMSOXD
 70
     0
  9
$DIMSAH
 70
     0
  9
$DIMBLK1
  1

  9
$DIMBLK2
  1

  9
$DIMSTYLE
  2
NEUTRIK
  9
$DIMCLRD
 70
     4
  9
$DIMCLRE
 70
     4
  9
$DIMCLRT
 70
     3
  9
$DIMTFAC
 40
1.0
  9
$DIMGAP
 40
0.15
  9
$LUNITS
 70
     2
  9
$LUPREC
 70
     2
  9
$SKETCHINC
 40
0.387898
  9
$FILLETRAD
 40
1.0
  9
$AUNITS
 70
     0
  9
$AUPREC
 70
     2
  9
$MENU
  1
acad
  9
$ELEVATION
 40
0.0
  9
$PELEVATION
 40
0.0
  9
$THICKNESS
 40
0.0
  9
$LIMCHECK
 70
     0
  9
$BLIPMODE
 70
     0
  9
$CHAMFERA
 40
0.0
  9
$CHAMFERB
 40
0.0
  9
$SKPOLY
 70
     0
  9
$TDCREATE
 40
2450555.560589
  9
$TDUPDATE
 40
2453319.58267
  9
$TDINDWG
 40
0.962171
  9
$TDUSRTIMER
 40
0.962171
  9
$USRTIMER
 70
     1
  9
$ANGBASE
 50
0.0
  9
$ANGDIR
 70
     0
  9
$PDMODE
 70
     0
  9
$PDSIZE
 40
0.0
  9
$PLINEWID
 40
0.0
  9
$COORDS
 70
     2
  9
$SPLFRAME
 70
     0
  9
$SPLINETYPE
 70
     6
  9
$SPLINESEGS
 70
     8
  9
$ATTDIA
 70
     0
  9
$ATTREQ
 70
     1
  9
$HANDLING
 70
     1
  9
$HANDSEED
  5
C958D
  9
$SURFTAB1
 70
     6
  9
$SURFTAB2
 70
     6
  9
$SURFTYPE
 70
     6
  9
$SURFU
 70
     6
  9
$SURFV
 70
     6
  9
$UCSNAME
  2

  9
$UCSORG
 10
0.0
 20
0.0
 30
0.0
  9
$UCSXDIR
 10
1.0
 20
0.0
 30
0.0
  9
$UCSYDIR
 10
0.0
 20
1.0
 30
0.0
  9
$PUCSNAME
  2

  9
$PUCSORG
 10
0.0
 20
0.0
 30
0.0
  9
$PUCSXDIR
 10
1.0
 20
0.0
 30
0.0
  9
$PUCSYDIR
 10
0.0
 20
1.0
 30
0.0
  9
$USERI1
 70
     0
  9
$USERI2
 70
     0
  9
$USERI3
 70
     0
  9
$USERI4
 70
     0
  9
$USERI5
 70
     0
  9
$USERR1
 40
0.0
  9
$USERR2
 40
0.0
  9
$USERR3
 40
0.0
  9
$USERR4
 40
0.0
  9
$USERR5
 40
0.0
  9
$WORLDVIEW
 70
     1
  9
$SHADEDGE
 70
     3
  9
$SHADEDIF
 70
    70
  9
$TILEMODE
 70
     1
  9
$MAXACTVP
 70
    16
  9
$PLIMCHECK
 70
     0
  9
$PEXTMIN
 10
1.000000E+020
 20
1.000000E+020
 30
1.000000E+020
  9
$PEXTMAX
 10
-1.000000E+020
 20
-1.000000E+020
 30
-1.000000E+020
  9
$PLIMMIN
 10
0.0
 20
0.0
  9
$PLIMMAX
 10
12.0
 20
9.0
  9
$UNITMODE
 70
     0
  9
$VISRETAIN
 70
     0
  9
$PLINEGEN
 70
     0
  9
$PSLTSCALE
 70
     0
  0
ENDSEC
  0
SECTION
  2
TABLES
  0
TABLE
  2
VPORT
 70
     2
  0
VPORT
  2
*ACTIVE
 70
     0
 10
0.0
 20
0.0
 11
1.0
 21
1.0
 12
104.996186
 22
148.500001
 13
0.0
 23
0.0
 14
1.0
 24
1.0
 15
2.0
 25
2.0
 16
0.0
 26
0.0
 36
1.0
 17
0.0
 27
0.0
 37
0.0
 40
299.242982
 41
1.525
 42
50.0
 43
0.0
 44
0.0
 50
0.0
 51
0.0
 71
     0
 72
   500
 73
     1
 74
     0
 75
     0
 76
     0
 77
     0
 78
     2
  0
ENDTAB
  0
TABLE
  2
LTYPE
 70
     4
  0
LTYPE
  2
AUSGEZOGEN
 70
     0
  3
Ausgezogene Linie
 72
    65
 73
     0
 40
0.0
  0
LTYPE
  2
CENTER
 70
     0
  3
____ _ ____ _ ____ _ ____ _ ____ _ ____ _ ____
 72
    65
 73
     4
 40
2.0
 49
1.25
 49
-0.25
 49
0.25
 49
-0.25
  0
LTYPE
  2
CONTINUOUS
 70
     0
  3
Solid line
 72
    65
 73
     0
 40
0.0
  0
LTYPE
  2
HIDDEN
 70
     0
  3
_ _ _ _ _ _ _ _ _ _ _ _ _ _ _ _ _ _ _ _ _ _ _
 72
    65
 73
     2
 40
0.375
 49
0.25
 49
-0.125
  0
ENDTAB
  0
TABLE
  2
LAYER
 70
     9
  0
LAYER
  2
0
 70
     0
 62
     7
  6
AUSGEZOGEN
  0
LAYER
  2
05
 70
     0
 62
     2
  6
AUSGEZOGEN
  0
LAYER
  2
035
 70
     0
 62
     3
  6
AUSGEZOGEN
  0
LAYER
  2
025
 70
     0
 62
     4
  6
AUSGEZOGEN
  0
LAYER
  2
ASHADE
 70
     0
 62
     7
  6
AUSGEZOGEN
  0
LAYER
  2
010
 70
     0
 62
     5
  6
AUSGEZOGEN
  0
LAYER
  2
MITTE
 70
     0
 62
     4
  6
CENTER
  0
LAYER
  2
BEM1
 70
     0
 62
     4
  6
AUSGEZOGEN
  0
LAYER
  2
RAHMEN
 70
     0
 62
     2
  6
AUSGEZOGEN
  0
ENDTAB
  0
TABLE
  2
STYLE
 70
     4
  0
STYLE
  2
STANDARD
 70
     0
 40
0.0
 41
0.7
 50
15.0
 71
     0
 42
3.5
  3
txt
  4

  0
STYLE
  2
HELV
 70
     0
 40
0.0
 41
0.8
 50
10.0
 71
     0
 42
2.0
  3
HELV.SHX
  4

  0
STYLE
  2
SCRIPTS
 70
     0
 40
0.0
 41
1.0
 50
0.0
 71
     0
 42
5.0
  3
scripts
  4

  0
STYLE
  2
ARIAL
 70
     0
 40
0.0
 41
1.0
 50
0.0
 71
     0
 42
3.5
  3
txt
  4

  0
ENDTAB
  0
TABLE
  2
VIEW
 70
     1
  0
VIEW
  2
OLE1
 70
     0
 40
362.04338
 10
262.080453
 20
181.02169
 41
524.160906
 11
0.0
 21
0.0
 31
1.0
 12
0.0
 22
0.0
 32
0.0
 42
50.0
 43
0.0
 44
0.0
 50
0.0
 71
     0
  0
ENDTAB
  0
TABLE
  2
UCS
 70
     0
  0
ENDTAB
  0
TABLE
  2
APPID
 70
     2
  0
APPID
  2
ACAD
 70
     0
  0
APPID
  2
AVE_RENDER
 70
     0
  0
ENDTAB
  0
TABLE
  2
DIMSTYLE
 70
     2
  0
DIMSTYLE
  2
STANDARD
 70
     0
  3

  4
"
  5

  6

  7

 40
1.0
 41
1.7
 42
0.5
 43
8.0
 44
0.4
 45
0.0
 46
0.0
 47
0.0
 48
0.0
140
1.7
141
5.0
142
0.0
143
0.03937
144
1.0
145
0.0
146
1.0
147
0.15
 71
     0
 72
     0
 73
     0
 74
     0
 75
     0
 76
     0
 77
     1
 78
     0
170
     0
171
     3
172
     0
173
     0
174
     0
175
     0
176
   256
177
   256
178
     3
  0
DIMSTYLE
  2
NEUTRIK
 70
     0
  3

  4
"
  5

  6

  7

 40
1.0
 41
3.5
 42
1.0
 43
8.0
 44
1.2
 45
0.0
 46
0.0
 47
0.0
 48
0.0
140
3.5
141
0.0
142
0.0
143
0.03937
144
1.0
145
0.0
146
1.0
147
0.15
 71
     0
 72
     0
 73
     0
 74
     0
 75
     0
 76
     0
 77
     1
 78
     0
170
     0
171
     3
172
     0
173
     0
174
     1
175
     0
176
     4
177
     4
178
     3
  0
ENDTAB
  0
ENDSEC
  0
SECTION
  2
BLOCKS
  0
BLOCK
  8
0
  2
$MODEL_SPACE
 70
     0
 10
0.0
 20
0.0
 30
0.0
  3
$MODEL_SPACE
  1

  0
ENDBLK
  5
C6467
  8
0
  0
BLOCK
 67
     1
  8
0
  2
$PAPER_SPACE
 70
     0
 10
0.0
 20
0.0
 30
0.0
  3
$PAPER_SPACE
  1

  0
ENDBLK
  5
C6465
 67
     1
  8
0
  0
BLOCK
  8
0
  2
AVE_RENDER
 70
     0
 10
0.0
 20
0.0
 30
0.0
  3
AVE_RENDER
  1
AVE_RENDER
  0
ENDBLK
  5
2F
  8
0
  0
BLOCK
  8
0
  2
NT_1
 70
     0
 10
0.0
 20
0.0
 30
0.0
  3
NT_1
  1

  0
ENDBLK
  5
35
  8
0
  0
BLOCK
  8
0
  2
ACAD
 70
     0
 10
0.0
 20
0.0
 30
0.0
  3
ACAD
  1

  0
INSERT
  5
13B32
  8
ASHADE
 62
     1
  2
AVE_RENDER
 10
0.0
 20
0.0
 30
0.0
1001
AVE_RENDER
1002
{
1070
     2
1000
Pref
1070
    40
1070
    20
1070
     1
1070
     0
1000

1070
    10
1070
     0
1070
    30
1040
1.0
1070
     1
1040
0.3
1040
0.7
1040
0.0
1040
10.0
1010
-1.0
1020
-1.0
1030
-1.0
1040
0.3
1070
    49
1002
}
  0
INSERT
  5
13B33
  8
ASHADE
 62
     3
  2
AVE_RENDER
 10
0.0
 20
0.0
 30
0.0
1001
AVE_RENDER
1002
{
1070
     0
1000
Full Opt
1070
     0
1070
     1
1070
     1
1070
     1
1070
     0
1070
     0
1070
     0
1070
     1
1070
     1
1040
0.0001
1040
0.0001
1002
}
  0
INSERT
  5
13B34
  8
ASHADE
 62
     4
  2
AVE_RENDER
 10
0.0
 20
0.0
 30
0.0
1001
AVE_RENDER
1002
{
1070
     0
1000
Quick Opt
1070
     0
1070
     1
1070
     1
1070
     1
1070
     1
1070
     0
1070
     1
1002
}
  0
INSERT
  5
13B38
  8
05
  2
NT_1
 10
98.709341
 20
147.840651
 30
0.0
 41
32.617
 42
-6.863009
 43
32.617
  0
ENDBLK
  5
13B61
  8
0
  0
BLOCK
  8
0
  2
ZKOPFC
 70
     2
 10
0.0
 20
0.0
 30
0.0
  3
ZKOPFC
  1

  0
ATTDEF
  5
C6BAC
  8
0
 62
     4
 10
-13.321429
 20
37.0
 30
0.0
 40
2.5
  1
Dobler
  7
SCRIPTS
 72
     1
 11
-8.5
 21
37.0
 31
0.0
  3
Name des Konstrukteurs ?
  2
NAME
 70
     0
  0
POLYLINE
  5
C6BAD
  8
0
 62
     2
 66
     1
 10
0.0
 20
0.0
 30
0.0
  0
VERTEX
  5
C947A
  8
0
 62
     2
 10
-51.0
 20
0.0
 30
0.0
  0
VERTEX
  5
C947B
  8
0
 62
     2
 10
-51.0
 20
46.0
 30
0.0
  0
SEQEND
  5
C947C
  8
0
 62
     2
  0
POLYLINE
  5
C6BAE
  8
0
 62
     2
 66
     1
 10
0.0
 20
0.0
 30
0.0
  0
VERTEX
  5
C947D
  8
0
 62
     2
 10
-17.0
 20
9.0
 30
0.0
  0
VERTEX
  5
C947E
  8
0
 62
     2
 10
-17.0
 20
46.0
 30
0.0
  0
SEQEND
  5
C947F
  8
0
 62
     2
  0
POLYLINE
  5
C6BAF
  8
0
 62
     2
 66
     1
 10
0.0
 20
0.0
 30
0.0
  0
VERTEX
  5
C9480
  8
0
 62
     2
 10
-32.0
 20
26.0
 30
0.0
  0
VERTEX
  5
C9481
  8
0
 62
     2
 10
-32.0
 20
46.0
 30
0.0
  0
SEQEND
  5
C9482
  8
0
 62
     2
  0
POLYLINE
  5
C6BB0
  8
0
 62
     2
 66
     1
 10
0.0
 20
0.0
 30
0.0
  0
VERTEX
  5
C9483
  8
0
 62
     2
 10
-133.0
 20
41.0
 30
0.0
  0
VERTEX
  5
C9484
  8
0
 62
     2
 10
-92.0
 20
41.0
 30
0.0
  0
SEQEND
  5
C9485
  8
0
 62
     2
  0
POLYLINE
  5
C6BB1
  8
0
 62
     2
 66
     1
 10
0.0
 20
0.0
 30
0.0
  0
VERTEX
  5
C9486
  8
0
 62
     2
 10
-145.0
 20
0.0
 30
0.0
  0
VERTEX
  5
C9487
  8
0
 62
     2
 10
-145.0
 20
46.0
 30
0.0
  0
SEQEND
  5
C9488
  8
0
 62
     2
  0
POLYLINE
  5
C6BB2
  8
0
 62
     2
 66
     1
 10
0.0
 20
0.0
 30
0.0
  0
VERTEX
  5
C9489
  8
0
 62
     2
 10
-158.0
 20
0.0
 30
0.0
  0
VERTEX
  5
C948A
  8
0
 62
     2
 10
-158.0
 20
46.0
 30
0.0
  0
SEQEND
  5
C948B
  8
0
 62
     2
  0
LINE
  5
C6BB3
  8
0
 62
     2
 10
-200.0
 20
6.0
 30
0.0
 11
-133.0
 21
6.0
 31
0.0
  0
POLYLINE
  5
C6BB4
  8
0
 62
     4
 66
     1
 10
0.0
 20
0.0
 30
0.0
  0
VERTEX
  5
C948C
  8
0
 62
     4
 10
-200.0
 20
11.0
 30
0.0
  0
VERTEX
  5
C948D
  8
0
 62
     4
 10
-133.0
 20
11.0
 30
0.0
  0
SEQEND
  5
C948E
  8
0
 62
     4
  0
POLYLINE
  5
C6BB5
  8
0
 62
     4
 66
     1
 10
0.0
 20
0.0
 30
0.0
  0
VERTEX
  5
C948F
  8
0
 62
     4
 10
-200.0
 20
16.0
 30
0.0
  0
VERTEX
  5
C9490
  8
0
 62
     4
 10
-133.0
 20
16.0
 30
0.0
  0
SEQEND
  5
C9491
  8
0
 62
     4
  0
POLYLINE
  5
C6BB6
  8
0
 62
     4
 66
     1
 10
0.0
 20
0.0
 30
0.0
  0
VERTEX
  5
C9492
  8
0
 62
     4
 10
-200.0
 20
21.0
 30
0.0
  0
VERTEX
  5
C9493
  8
0
 62
     4
 10
-133.0
 20
21.0
 30
0.0
  0
SEQEND
  5
C9494
  8
0
 62
     4
  0
POLYLINE
  5
C6BB7
  8
0
 62
     4
 66
     1
 10
0.0
 20
0.0
 30
0.0
  0
VERTEX
  5
C9495
  8
0
 62
     4
 10
-200.0
 20
26.0
 30
0.0
  0
VERTEX
  5
C9496
  8
0
 62
     4
 10
-133.0
 20
26.0
 30
0.0
  0
SEQEND
  5
C9497
  8
0
 62
     4
  0
POLYLINE
  5
C6BB8
  8
0
 62
     4
 66
     1
 10
0.0
 20
0.0
 30
0.0
  0
VERTEX
  5
C9498
  8
0
 62
     4
 10
-200.0
 20
31.0
 30
0.0
  0
VERTEX
  5
C9499
  8
0
 62
     4
 10
-133.0
 20
31.0
 30
0.0
  0
SEQEND
  5
C949A
  8
0
 62
     4
  0
POLYLINE
  5
C6BB9
  8
0
 62
     4
 66
     1
 10
0.0
 20
0.0
 30
0.0
  0
VERTEX
  5
C949B
  8
0
 62
     4
 10
-200.0
 20
36.0
 30
0.0
  0
VERTEX
  5
C949C
  8
0
 62
     4
 10
-133.0
 20
36.0
 30
0.0
  0
SEQEND
  5
C949D
  8
0
 62
     4
  0
POLYLINE
  5
C6BBA
  8
0
 62
     4
 66
     1
 10
0.0
 20
0.0
 30
0.0
  0
VERTEX
  5
C949E
  8
0
 62
     4
 10
-200.0
 20
41.0
 30
0.0
  0
VERTEX
  5
C949F
  8
0
 62
     4
 10
-133.0
 20
41.0
 30
0.0
  0
SEQEND
  5
C94A0
  8
0
 62
     4
  0
TEXT
  5
C6BBB
  8
0
 62
     4
 10
-50.0
 20
6.0
 30
0.0
 40
1.5
  1
Zeichn. Nr.
 51
15.0
  0
TEXT
  5
C6BBC
  8
0
 62
     4
 10
-50.0
 20
23.0
 30
0.0
 40
1.5
  1
Ersetzt durch:         Blatt
 51
15.0
  0
TEXT
  5
C6BBD
  8
0
 62
     4
 10
-50.0
 20
38.0
 30
0.0
 40
1.5
  1
Gezeichnet
 51
15.0
  0
TEXT
  5
C6BBE
  8
0
 62
     4
 10
-50.0
 20
27.0
 30
0.0
 40
1.5
  1
Gesehen
 51
15.0
  0
TEXT
  5
C6BBF
  8
0
 62
     4
 10
-31.0
 20
42.0
 30
0.0
 40
1.5
  1
Datum     Name
 51
15.0
  0
TEXT
  5
C6BC0
  8
0
 62
     4
 10
-91.0
 20
42.0
 30
0.0
 40
1.5
  1
Werkstoff:      Massstab:
 51
15.0
  0
TEXT
  5
C6BC1
  8
0
 62
     4
 10
-132.0
 20
23.0
 30
0.0
 40
1.5
  1
Benennung:
 51
15.0
  0
LINE
  5
C6BC2
  8
0
 62
     2
 10
-133.0
 20
33.0
 30
0.0
 11
-92.0
 21
33.0
 31
0.0
  0
TEXT
  5
C6BC3
  8
0
 62
     4
 10
-132.0
 20
39.0
 30
0.0
 40
1.5
  1
*)Lieferant darf ohne 
 51
15.0
  0
TEXT
  5
C6BC4
  8
0
 62
     4
 10
-132.0
 20
36.5
 30
0.0
 40
1.5
  1
 Ruecksprache nicht 
 51
15.0
  0
TEXT
  5
C6BC5
  8
0
 62
     4
 10
-132.0
 20
34.0
 30
0.0
 40
1.5
  1
 geaendert werden
 51
15.0
  0
TEXT
  5
C6BC6
  8
0
 62
     4
 10
-132.0
 20
30.0
 30
0.0
 40
1.5
  1
Zeichnung urheberrechtlich
 51
15.0
  0
TEXT
  5
C6BC7
  8
0
 62
     4
 10
-132.0
 20
27.5
 30
0.0
 40
1.5
  1
geschuetzt (DIN 34) (C)
 51
15.0
  0
TEXT
  5
C6BC8
  8
0
 62
     4
 10
-50.0
 20
32.0
 30
0.0
 40
1.5
  1
Geprueft
 51
15.0
  0
TEXT
  5
C6BC9
  8
0
 62
     4
 10
-50.0
 20
15.0
 30
0.0
 40
1.5
  1
Ersatz fuer:           von  Blatt
 51
15.0
  0
TEXT
  5
C6BCA
  8
0
 62
     4
 10
-197.0
 20
1.0
 30
0.0
 40
1.5
  1
Ind.  Aenderung             Datum    Name
 51
15.0
  0
ATTDEF
  5
C6BCB
  8
0
 62
     4
 10
-28.875
 20
37.0
 30
0.0
 40
2.5
  1
01.10.91
 41
0.7
 51
15.0
 72
     1
 11
-24.5
 21
37.0
 31
0.0
  3
Datum der Zeichnung ?
  2
DATE
 70
     0
  0
ATTDEF
  5
C6BCC
  8
0
 62
     4
 10
-80.5
 20
36.0
 30
0.0
 40
2.5
  1

 41
0.7
 51
15.0
 72
     1
 11
-80.5
 21
36.0
 31
0.0
  3
Aus welchem Werkstoff ?
  2
WERKSTOFF
 70
     0
  0
ATTDEF
  5
C6BCD
  8
0
 62
     2
 10
-92.0
 20
12.5
 30
0.0
 40
5.0
  1

 41
0.7
 51
15.0
 72
     1
 11
-92.0
 21
12.5
 31
0.0
  3
Zeichnungsname ?
  2
BENENNUNG
 70
     0
  0
ATTDEF
  5
C6BCE
  8
0
 62
     3
 10
-90.265457
 20
21.082191
 30
0.0
 40
3.5
  1
()
 41
0.7
 51
15.0
 72
     1
 11
-89.040457
 21
21.082191
 31
0.0
  3
Zu welchem Produkt ?
  2
TEIL
 70
     0
  0
ATTDEF
  5
C6BCF
  8
0
 62
     3
 10
-20.550219
 20
1.976541
 30
0.0
 40
3.5
  1

 41
0.7
 51
15.0
 72
     1
 11
-20.550219
 21
1.976541
 31
0.0
  3
Zeichnungsnummer ?
  2
NUMMER
 70
     0
  0
ATTDEF
  5
C6BD0
  8
0
 62
     2
 10
-63.482672
 20
34.656056
 30
0.0
 40
5.0
  1
5:1
 41
0.7
 51
15.0
 72
     1
 11
-60.566005
 21
34.656056
 31
0.0
  3
Hauptmassstab:
  2
MASS
 70
     0
  0
ATTDEF
  5
C6BD1
  8
0
 62
     3
 10
-60.480701
 20
28.210451
 30
0.0
 40
3.5
  1

 41
0.7
 51
15.0
 72
     1
 11
-60.480701
 21
28.210451
 31
0.0
  3
Nebenmassstab:
  2
MASS2
 70
     0
  0
ATTDEF
  5
C6BD2
  8
0
 62
     4
 10
-81.0
 20
29.0
 30
0.0
 40
2.5
  1

 41
0.7
 51
15.0
 72
     1
 11
-81.0
 21
29.0
 31
0.0
  3
Werkstoffzusatz:
  2
TEIL
 70
     0
  0
ATTDEF
  5
C6BD3
  8
0
 62
     3
 10
-107.711452
 20
59.004319
 30
0.0
 40
3.5
  1
Freimasstoleranzen %%p0.1
 41
0.7
 51
15.0
  3
Freimasstoleranzen:
  2
TOL
 70
     0
  0
ATTDEF
  5
C6BD4
  8
0
 62
     3
 10
-107.711452
 20
54.004319
 30
0.0
 40
3.5
  1
nicht bemasste Radien R=0.2
 41
0.7
 51
15.0
  3
Nicht bemasste Radien:
  2
RADIEN
 70
     0
  0
ATTDEF
  5
C6BD5
  8
0
 62
     3
 10
-107.711452
 20
49.004319
 30
0.0
 40
3.5
  1
nicht bemasste Facetten 0.5 x 45%%D
 41
0.7
 51
15.0
  3
nicht bemasste Facetten:
  2
FACETTE
 70
     0
  0
POLYLINE
  5
C6BD6
  8
0
 62
     2
 66
     1
 10
0.0
 20
0.0
 30
0.0
  0
VERTEX
  5
C94A1
  8
0
 62
     2
 10
-191.0
 20
0.0
 30
0.0
  0
VERTEX
  5
C94A2
  8
0
 62
     2
 10
-191.0
 20
46.0
 30
0.0
  0
SEQEND
  5
C94A3
  8
0
 62
     2
  0
POLYLINE
  5
C6BD7
  8
0
 62
     2
 66
     1
 10
0.0
 20
0.0
 30
0.0
  0
VERTEX
  5
C94A4
  8
0
 62
     2
 10
-133.0
 20
0.0
 30
0.0
  0
VERTEX
  5
C94A5
  8
0
 62
     2
 10
-133.0
 20
46.0
 30
0.0
  0
SEQEND
  5
C94A6
  8
0
 62
     2
  0
POLYLINE
  5
C6BD8
  8
0
 62
     2
 66
     1
 10
0.0
 20
0.0
 30
0.0
  0
VERTEX
  5
C94A7
  8
0
 62
     2
 10
-92.0
 20
26.0
 30
0.0
  0
VERTEX
  5
C94A8
  8
0
 62
     2
 10
-92.0
 20
46.0
 30
0.0
  0
SEQEND
  5
C94A9
  8
0
 62
     2
  0
POLYLINE
  5
C6BD9
  8
0
 62
     2
 66
     1
 10
0.0
 20
0.0
 30
0.0
  0
VERTEX
  5
C94AA
  8
0
 62
     2
 10
-69.0
 20
26.0
 30
0.0
  0
VERTEX
  5
C94AB
  8
0
 62
     2
 10
-69.0
 20
46.0
 30
0.0
  0
SEQEND
  5
C94AC
  8
0
 62
     2
  0
ATTDEF
  5
C6BDA
  8
0
 62
     4
 10
-197.186267
 20
7.0
 30
0.0
 40
2.5
  1

 41
0.7
 51
15.0
  3
Index1:
  2
INDEX1
 70
     0
  0
ATTDEF
  5
C6BDB
  8
0
 62
     4
 10
-190.348743
 20
7.0
 30
0.0
 40
2.5
  1

 41
0.7
 51
15.0
  3
Aenderung1:
  2
A1
 70
     0
  0
ATTDEF
  5
C6BDC
  8
0
 62
     4
 10
-157.348743
 20
7.0
 30
0.0
 40
2.5
  1

 41
0.7
 51
15.0
  3
Datum1:
  2
DATUM1
 70
     0
  0
ATTDEF
  5
C6BDD
  8
0
 62
     4
 10
-144.46499
 20
7.0
 30
0.0
 40
2.5
  1

 41
0.7
 51
15.0
  3
Name1:
  2
NAME1
 70
     0
  0
ATTDEF
  5
C6BDE
  8
0
 62
     4
 10
-197.186267
 20
12.0
 30
0.0
 40
2.5
  1

 41
0.7
 51
15.0
  3
Index2:
  2
INDEX2
 70
     0
  0
ATTDEF
  5
C6BDF
  8
0
 62
     4
 10
-190.348743
 20
12.0
 30
0.0
 40
2.5
  1

 41
0.7
 51
15.0
  3
Aenderung2:
  2
A2
 70
     0
  0
ATTDEF
  5
C6BE0
  8
0
 62
     4
 10
-157.348743
 20
12.0
 30
0.0
 40
2.5
  1

 41
0.7
 51
15.0
  3
Datum2:
  2
DATUM2
 70
     0
  0
ATTDEF
  5
C6BE1
  8
0
 62
     4
 10
-144.46499
 20
12.0
 30
0.0
 40
2.5
  1

 41
0.7
 51
15.0
  3
Name2
  2
NAME2
 70
     0
  0
ATTDEF
  5
C6BE2
  8
0
 62
     4
 10
-197.186267
 20
17.0
 30
0.0
 40
2.5
  1

 41
0.7
 51
15.0
  3
Index3:
  2
INDEX3
 70
     0
  0
ATTDEF
  5
C6BE3
  8
0
 62
     4
 10
-190.348743
 20
17.0
 30
0.0
 40
2.5
  1

 41
0.7
 51
15.0
  3
Aenderung3
  2
A3
 70
     0
  0
ATTDEF
  5
C6BE4
  8
0
 62
     4
 10
-157.348743
 20
17.0
 30
0.0
 40
2.5
  1

 41
0.7
 51
15.0
  3
Datum3:
  2
DATUM3
 70
     0
  0
ATTDEF
  5
C6BE5
  8
0
 62
     4
 10
-144.46499
 20
17.0
 30
0.0
 40
2.5
  1

 41
0.7
 51
15.0
  3
Name3:
  2
NAME3
 70
     0
  0
ATTDEF
  5
C6BE6
  8
0
 62
     4
 10
-197.186267
 20
22.0
 30
0.0
 40
2.5
  1

 41
0.7
 51
15.0
  3
Index4:
  2
INDEX4
 70
     0
  0
ATTDEF
  5
C6BE7
  8
0
 62
     4
 10
-190.348743
 20
22.0
 30
0.0
 40
2.5
  1

 41
0.7
 51
15.0
  3
Aenderung4:
  2
A4
 70
     0
  0
ATTDEF
  5
C6BE8
  8
0
 62
     4
 10
-157.348743
 20
22.0
 30
0.0
 40
2.5
  1

 41
0.7
 51
15.0
  3
Datum4:
  2
DATUM4
 70
     0
  0
ATTDEF
  5
C6BE9
  8
0
 62
     4
 10
-144.46499
 20
22.0
 30
0.0
 40
2.5
  1

 41
0.7
 51
15.0
  3
Name4:
  2
NAME4
 70
     0
  0
ATTDEF
  5
C6BEA
  8
0
 62
     4
 10
-197.186267
 20
27.0
 30
0.0
 40
2.5
  1

 41
0.7
 51
15.0
  3
Index5:
  2
INDEX5
 70
     0
  0
ATTDEF
  5
C6BEB
  8
0
 62
     4
 10
-190.348743
 20
27.0
 30
0.0
 40
2.5
  1

 41
0.7
 51
15.0
  3
Aenderung5:
  2
A5
 70
     0
  0
ATTDEF
  5
C6BEC
  8
0
 62
     4
 10
-157.348743
 20
27.0
 30
0.0
 40
2.5
  1

 41
0.7
 51
15.0
  3
Datum5:
  2
DATUM5
 70
     0
  0
ATTDEF
  5
C6BED
  8
0
 62
     4
 10
-144.46499
 20
27.0
 30
0.0
 40
2.5
  1

 41
0.7
 51
15.0
  3
Name5
  2
NAME5
 70
     0
  0
ATTDEF
  5
C6BEE
  8
0
 62
     4
 10
-197.186267
 20
32.0
 30
0.0
 40
2.5
  1

 41
0.7
 51
15.0
  3
Index6:
  2
INDEX6
 70
     0
  0
ATTDEF
  5
C6BEF
  8
0
 62
     4
 10
-190.348743
 20
32.0
 30
0.0
 40
2.5
  1

 41
0.7
 51
15.0
  3
Aenderung6:
  2
A6
 70
     0
  0
ATTDEF
  5
C6BF0
  8
0
 62
     4
 10
-157.348743
 20
32.0
 30
0.0
 40
2.5
  1

 41
0.7
 51
15.0
  3
Datum6:
  2
DATUM6
 70
     0
  0
ATTDEF
  5
C6BF1
  8
0
 62
     4
 10
-144.46499
 20
32.0
 30
0.0
 40
2.5
  1

 41
0.7
 51
15.0
  3
Name6:
  2
NAME6
 70
     0
  0
ATTDEF
  5
C6BF2
  8
0
 62
     4
 10
-197.186267
 20
37.0
 30
0.0
 40
2.5
  1

 41
0.7
 51
15.0
  3
Index7:
  2
INDEX7
 70
     0
  0
ATTDEF
  5
C6BF3
  8
0
 62
     4
 10
-190.348743
 20
37.0
 30
0.0
 40
2.5
  1

 41
0.7
 51
15.0
  3
Aenderung7:
  2
A7
 70
     0
  0
ATTDEF
  5
C6BF4
  8
0
 62
     4
 10
-157.348743
 20
37.0
 30
0.0
 40
2.5
  1

 41
0.7
 51
15.0
  3
Datum7:
  2
DATUM7
 70
     0
  0
ATTDEF
  5
C6BF5
  8
0
 62
     4
 10
-144.46499
 20
37.0
 30
0.0
 40
2.5
  1

 41
0.7
 51
15.0
  3
Name7:
  2
NAME7
 70
     0
  0
ATTDEF
  5
C6BF6
  8
0
 62
     4
 10
-197.186267
 20
42.0
 30
0.0
 40
2.5
  1

 41
0.7
 51
15.0
  3
Index8:
  2
INDEX8
 70
     0
  0
ATTDEF
  5
C6BF7
  8
0
 62
     4
 10
-190.348743
 20
42.0
 30
0.0
 40
2.5
  1

 41
0.7
 51
15.0
  3
Aenderung8:
  2
A8
 70
     0
  0
ATTDEF
  5
C6BF8
  8
0
 62
     4
 10
-157.348743
 20
42.0
 30
0.0
 40
2.5
  1

 41
0.7
 51
15.0
  3
Datum8:
  2
DATUM8
 70
     0
  0
ATTDEF
  5
C6BF9
  8
0
 62
     4
 10
-144.46499
 20
42.0
 30
0.0
 40
2.5
  1

 41
0.7
 51
15.0
  3
Name8:
  2
NAME8
 70
     0
  0
POLYLINE
  5
C6BFA
  8
0
 62
     2
 66
     1
 10
0.0
 20
0.0
 30
0.0
  0
VERTEX
  5
C94AD
  8
0
 62
     2
 10
0.0
 20
0.0
 30
0.0
  0
VERTEX
  5
C94AE
  8
0
 62
     2
 10
0.0
 20
46.0
 30
0.0
  0
SEQEND
  5
C94AF
  8
0
 62
     2
  0
POLYLINE
  5
C6BFB
  8
0
 62
     2
 66
     1
 10
0.0
 20
0.0
 30
0.0
  0
VERTEX
  5
C94B0
  8
0
 62
     2
 10
-200.0
 20
46.0
 30
0.0
  0
VERTEX
  5
C94B1
  8
0
 62
     2
 10
-200.0
 20
0.0
 30
0.0
  0
SEQEND
  5
C94B2
  8
0
 62
     2
  0
POLYLINE
  5
C6BFC
  8
0
 62
     2
 66
     1
 10
0.0
 20
0.0
 30
0.0
  0
VERTEX
  5
C94B3
  8
0
 62
     2
 10
0.0
 20
9.0
 30
0.0
  0
VERTEX
  5
C94B4
  8
0
 62
     2
 10
-133.0
 20
9.0
 30
0.0
  0
SEQEND
  5
C94B5
  8
0
 62
     2
  0
POLYLINE
  5
C6BFD
  8
0
 62
     2
 66
     1
 10
0.0
 20
0.0
 30
0.0
  0
VERTEX
  5
C94B6
  8
0
 62
     2
 10
0.0
 20
18.0
 30
0.0
  0
VERTEX
  5
C94B7
  8
0
 62
     2
 10
-51.0
 20
18.0
 30
0.0
  0
SEQEND
  5
C94B8
  8
0
 62
     2
  0
POLYLINE
  5
C6BFE
  8
0
 62
     2
 66
     1
 10
0.0
 20
0.0
 30
0.0
  0
VERTEX
  5
C94B9
  8
0
 62
     2
 10
0.0
 20
26.0
 30
0.0
  0
VERTEX
  5
C94BA
  8
0
 62
     2
 10
-133.0
 20
26.0
 30
0.0
  0
SEQEND
  5
C94BB
  8
0
 62
     2
  0
POLYLINE
  5
C6BFF
  8
0
 62
     2
 66
     1
 10
0.0
 20
0.0
 30
0.0
  0
VERTEX
  5
C94BC
  8
0
 62
     2
 10
0.0
 20
31.0
 30
0.0
  0
VERTEX
  5
C94BD
  8
0
 62
     2
 10
-51.0
 20
31.0
 30
0.0
  0
SEQEND
  5
C94BE
  8
0
 62
     2
  0
POLYLINE
  5
C6C00
  8
0
 62
     2
 66
     1
 10
0.0
 20
0.0
 30
0.0
  0
VERTEX
  5
C94BF
  8
0
 62
     2
 10
0.0
 20
36.0
 30
0.0
  0
VERTEX
  5
C94C0
  8
0
 62
     2
 10
-51.0
 20
36.0
 30
0.0
  0
SEQEND
  5
C94C1
  8
0
 62
     2
  0
POLYLINE
  5
C6C01
  8
0
 62
     2
 66
     1
 10
0.0
 20
0.0
 30
0.0
  0
VERTEX
  5
C94C2
  8
0
 62
     2
 10
0.0
 20
41.0
 30
0.0
  0
VERTEX
  5
C94C3
  8
0
 62
     2
 10
-51.0
 20
41.0
 30
0.0
  0
SEQEND
  5
C94C4
  8
0
 62
     2
  0
POLYLINE
  5
C6C02
  8
0
 62
     2
 66
     1
 10
0.0
 20
0.0
 30
0.0
  0
VERTEX
  5
C94C5
  8
0
 62
     2
 10
0.0
 20
46.0
 30
0.0
  0
VERTEX
  5
C94C6
  8
0
 62
     2
 10
-200.0
 20
46.0
 30
0.0
  0
SEQEND
  5
C94C7
  8
0
 62
     2
  0
TEXT
  5
C6C03
  8
035
 10
517.653158
 20
512.84859
 30
0.0
 40
3.5
  1
  
 41
0.7
 51
15.0
  0
LINE
  5
C6C04
  8
035
 10
-128.755568
 20
3.208952
 30
0.0
 11
-126.70617
 21
3.208952
 31
0.0
  0
LINE
  5
C6C05
  8
035
 10
-128.094709
 20
6.189896
 30
0.0
 11
-125.672692
 21
6.189896
 31
0.0
  0
LINE
  5
C6C06
  8
035
 10
-128.755568
 20
3.208952
 30
0.0
 11
-128.094709
 21
6.189896
 31
0.0
  0
LINE
  5
C6C07
  8
035
 10
-126.70617
 20
3.208952
 30
0.0
 11
-126.334436
 21
4.885733
 31
0.0
  0
LINE
  5
C6C08
  8
035
 10
-122.1416
 20
3.208952
 30
0.0
 11
-121.48074
 21
6.189896
 31
0.0
  0
LINE
  5
C6C09
  8
035
 10
-123.819265
 20
4.885733
 30
0.0
 11
-123.530139
 21
6.189896
 31
0.0
  0
LINE
  5
C6C0A
  8
035
 10
-126.334436
 20
4.885733
 30
0.0
 11
-124.470462
 21
3.208952
 31
0.0
  0
LINE
  5
C6C0B
  8
035
 10
-125.672692
 20
6.189896
 30
0.0
 11
-123.819265
 21
4.885733
 31
0.0
  0
LINE
  5
C6C0C
  8
035
 10
-123.530139
 20
6.189896
 30
0.0
 11
-121.48074
 21
6.189896
 31
0.0
  0
LINE
  5
C6C0D
  8
035
 10
-124.470462
 20
3.208952
 30
0.0
 11
-122.1416
 21
3.208952
 31
0.0
  0
LINE
  5
C6C0E
  8
035
 10
-121.1169
 20
3.208952
 30
0.0
 11
-120.456041
 21
6.189896
 31
0.0
  0
LINE
  5
C6C0F
  8
035
 10
-118.950452
 20
3.736926
 30
0.0
 11
-118.775644
 21
4.525437
 31
0.0
  0
LINE
  5
C6C10
  8
035
 10
-115.515237
 20
4.525437
 30
0.0
 11
-115.438093
 21
4.873411
 31
0.0
  0
LINE
  5
C6C11
  8
035
 10
-115.527631
 20
3.208952
 30
0.0
 11
-115.410582
 21
3.736926
 31
0.0
  0
LINE
  5
C6C12
  8
035
 10
-121.1169
 20
3.208952
 30
0.0
 11
-115.527631
 21
3.208952
 31
0.0
  0
LINE
  5
C6C13
  8
035
 10
-120.456041
 20
6.189896
 30
0.0
 11
-114.866772
 21
6.189896
 31
0.0
  0
LINE
  5
C6C14
  8
035
 10
-118.6985
 20
4.873411
 30
0.0
 11
-118.523691
 21
5.661922
 31
0.0
  0
LINE
  5
C6C15
  8
035
 10
-114.983821
 20
5.661922
 30
0.0
 11
-114.866772
 21
6.189896
 31
0.0
  0
LINE
  5
C6C16
  8
035
 10
-114.394221
 20
4.119506
 30
0.0
 11
-113.935227
 21
6.189896
 31
0.0
  0
LINE
  5
C6C17
  8
035
 10
-112.293136
 20
4.375928
 30
0.0
 11
-111.890989
 21
6.189896
 31
0.0
  0
LINE
  5
C6C18
  8
035
 10
-110.051948
 20
4.279275
 30
0.0
 11
-109.628373
 21
6.189896
 31
0.0
  0
LINE
  5
C6C19
  8
035
 10
-108.075244
 20
3.974729
 30
0.0
 11
-107.584153
 21
6.189896
 31
0.0
  0
LINE
  5
C6C1A
  8
035
 10
-113.935227
 20
6.189896
 30
0.0
 11
-111.890989
 21
6.189896
 31
0.0
  0
POLYLINE
  5
C6C1B
  8
035
 66
     1
 10
0.0
 20
0.0
 30
0.0
  0
VERTEX
  5
C94C8
  8
035
 10
-114.394221
 20
4.119506
 30
0.0
 42
0.053304
  0
VERTEX
  5
C94C9
  8
035
 10
-114.401936
 20
4.047343
 30
0.0
 42
0.242955
  0
SEQEND
  5
C94CA
  8
035
  0
POLYLINE
  5
C6C1C
  8
035
 66
     1
 10
0.0
 20
0.0
 30
0.0
  0
VERTEX
  5
C94CB
  8
035
 10
-114.401936
 20
4.047343
 30
0.0
 42
0.242955
  0
VERTEX
  5
C94CC
  8
035
 10
-114.258214
 20
3.769022
 30
0.0
 42
0.083039
  0
VERTEX
  5
C94CD
  8
035
 10
-113.474269
 20
3.388641
 30
0.0
 42
0.041229
  0
VERTEX
  5
C94CE
  8
035
 10
-112.535236
 20
3.194727
 30
0.0
 42
0.030317
  0
VERTEX
  5
C94CF
  8
035
 10
-111.234684
 20
3.115798
 30
0.0
 42
0.030317
  0
VERTEX
  5
C94D0
  8
035
 10
-109.934131
 20
3.194727
 30
0.0
 42
0.041229
  0
VERTEX
  5
C94D1
  8
035
 10
-108.995098
 20
3.388641
 30
0.0
 42
0.083039
  0
VERTEX
  5
C94D2
  8
035
 10
-108.211153
 20
3.769022
 30
0.0
 42
0.186877
  0
VERTEX
  5
C94D3
  8
035
 10
-108.075244
 20
3.974729
 30
0.0
 42
0.242955
  0
SEQEND
  5
C94D4
  8
035
  0
POLYLINE
  5
C6C1D
  8
035
 66
     1
 10
0.0
 20
0.0
 30
0.0
  0
VERTEX
  5
C94D5
  8
035
 10
-112.298865
 20
4.326806
 30
0.0
 42
0.199105
  0
VERTEX
  5
C94D6
  8
035
 10
-112.236231
 20
4.175751
 30
0.0
 42
0.098437
  0
VERTEX
  5
C94D7
  8
035
 10
-111.969027
 20
3.997455
 30
0.0
 42
0.055684
  0
VERTEX
  5
C94D8
  8
035
 10
-111.63144
 20
3.900043
 30
0.0
 42
0.042444
  0
VERTEX
  5
C94D9
  8
035
 10
-111.172727
 20
3.861034
 30
0.0
 42
0.042444
  0
VERTEX
  5
C94DA
  8
035
 10
-110.714014
 20
3.900043
 30
0.0
 42
0.055684
  0
VERTEX
  5
C94DB
  8
035
 10
-110.376427
 20
3.997455
 30
0.0
 42
0.098437
  0
VERTEX
  5
C94DC
  8
035
 10
-110.109223
 20
4.175751
 30
0.0
 42
0.141327
  0
VERTEX
  5
C94DD
  8
035
 10
-110.051948
 20
4.279275
 30
0.0
 42
0.199105
  0
SEQEND
  5
C94DE
  8
035
  0
POLYLINE
  5
C6C1E
  8
035
 66
     1
 10
0.0
 20
0.0
 30
0.0
  0
VERTEX
  5
C94DF
  8
035
 10
-112.293136
 20
4.375928
 30
0.0
 42
0.058115
  0
VERTEX
  5
C94E0
  8
035
 10
-112.298865
 20
4.326806
 30
0.0
 42
0.199105
  0
SEQEND
  5
C94E1
  8
035
  0
LINE
  5
C6C1F
  8
035
 10
-109.628373
 20
6.189896
 30
0.0
 11
-107.584153
 21
6.189896
 31
0.0
  0
LINE
  5
C6C20
  8
035
 10
-107.207009
 20
5.44466
 30
0.0
 11
-107.041794
 21
6.189896
 31
0.0
  0
LINE
  5
C6C21
  8
035
 10
-105.839564
 20
3.208952
 30
0.0
 11
-105.343919
 21
5.44466
 31
0.0
  0
LINE
  5
C6C22
  8
035
 10
-103.790165
 20
3.208952
 30
0.0
 11
-103.294521
 21
5.44466
 31
0.0
  0
LINE
  5
C6C23
  8
035
 10
-101.338276
 20
5.44466
 30
0.0
 11
-101.173062
 21
6.189896
 31
0.0
  0
LINE
  5
C6C24
  8
035
 10
-107.207009
 20
5.44466
 30
0.0
 11
-105.343919
 21
5.44466
 31
0.0
  0
LINE
  5
C6C25
  8
035
 10
-105.839564
 20
3.208952
 30
0.0
 11
-103.790165
 21
3.208952
 31
0.0
  0
LINE
  5
C6C26
  8
035
 10
-107.041794
 20
6.189896
 30
0.0
 11
-101.173062
 21
6.189896
 31
0.0
  0
LINE
  5
C6C27
  8
035
 10
-103.294521
 20
5.44466
 30
0.0
 11
-101.338276
 21
5.44466
 31
0.0
  0
LINE
  5
C6C28
  8
035
 10
-101.181839
 20
3.208952
 30
0.0
 11
-100.52098
 21
6.189896
 31
0.0
  0
LINE
  5
C6C29
  8
035
 10
-99.132441
 20
3.208952
 30
0.0
 11
-98.886017
 21
4.320497
 31
0.0
  0
LINE
  5
C6C2A
  8
035
 10
-101.181839
 20
3.208952
 30
0.0
 11
-99.132441
 21
3.208952
 31
0.0
  0
LINE
  5
C6C2B
  8
035
 10
-100.52098
 20
6.189896
 30
0.0
 11
-95.290929
 21
6.189896
 31
0.0
  0
LINE
  5
C6C2C
  8
035
 10
-94.918675
 20
3.520906
 30
0.0
 11
-94.870132
 21
4.215096
 31
0.0
  0
LINE
  5
C6C2D
  8
035
 10
-96.97328
 20
3.446451
 30
0.0
 11
-96.935761
 21
3.992515
 31
0.0
  0
LINE
  5
C6C2E
  8
035
 10
-98.808873
 20
4.668471
 30
0.0
 11
-98.58863
 21
5.661922
 31
0.0
  0
ARC
  5
C6C2F
  8
035
 10
-94.454037
 20
3.488416
 30
0.0
 40
0.465772
 50
176.0
 51
216.869898
  0
ARC
  5
C6C30
  8
035
 10
-96.524732
 20
3.452495
 30
0.0
 40
0.448589
 50
180.772005
 51
212.881875
  0
LINE
  5
C6C31
  8
035
 10
-96.901453
 20
3.208952
 30
0.0
 11
-94.826655
 21
3.208952
 31
0.0
  0
POLYLINE
  5
C6C32
  8
035
 66
     1
 10
0.0
 20
0.0
 30
0.0
  0
VERTEX
  5
C94E2
  8
035
 10
-94.870132
 20
4.215096
 30
0.0
 42
0.084831
  0
VERTEX
  5
C94E3
  8
035
 10
-94.880776
 20
4.329788
 30
0.0
 42
0.153048
  0
VERTEX
  5
C94E4
  8
035
 10
-94.99037
 20
4.50246
 30
0.0
 42
0.025315
  0
VERTEX
  5
C94E5
  8
035
 10
-95.045479
 20
4.544432
 30
0.0
 42
0.067948
  0
SEQEND
  5
C94E6
  8
035
  0
POLYLINE
  5
C6C33
  8
035
 66
     1
 10
0.0
 20
0.0
 30
0.0
  0
VERTEX
  5
C94E7
  8
035
 10
-95.045479
 20
4.544432
 30
0.0
 42
0.015369
  0
VERTEX
  5
C94E8
  8
035
 10
-94.909079
 20
4.61424
 30
0.0
 42
0.073981
  0
VERTEX
  5
C94E9
  8
035
 10
-94.516614
 20
4.9135
 30
0.0
 42
0.106894
  0
VERTEX
  5
C94EA
  8
035
 10
-94.271191
 20
5.306124
 30
0.0
 42
0.153048
  0
VERTEX
  5
C94EB
  8
035
 10
-94.257471
 20
5.63306
 30
0.0
 42
0.153048
  0
VERTEX
  5
C94EC
  8
035
 10
-94.432821
 20
5.909336
 30
0.0
 42
0.106894
  0
VERTEX
  5
C94ED
  8
035
 10
-94.841676
 20
6.126646
 30
0.0
 42
0.067948
  0
VERTEX
  5
C94EE
  8
035
 10
-95.290929
 20
6.189896
 30
0.0
 42
0.060566
  0
SEQEND
  5
C94EF
  8
035
  0
LINE
  5
C6C34
  8
035
 10
-93.915789
 20
3.208952
 30
0.0
 11
-93.25493
 21
6.189896
 31
0.0
  0
LINE
  5
C6C35
  8
035
 10
-91.866391
 20
3.208952
 30
0.0
 11
-91.205531
 21
6.189896
 31
0.0
  0
LINE
  5
C6C36
  8
035
 10
-93.915789
 20
3.208952
 30
0.0
 11
-91.866391
 21
3.208952
 31
0.0
  0
LINE
  5
C6C37
  8
035
 10
-93.25493
 20
6.189896
 30
0.0
 11
-91.205531
 21
6.189896
 31
0.0
  0
LINE
  5
C6C38
  8
035
 10
-90.655382
 20
3.208952
 30
0.0
 11
-89.994523
 21
6.189896
 31
0.0
  0
LINE
  5
C6C39
  8
035
 10
-88.699138
 20
3.208952
 30
0.0
 11
-88.533923
 21
3.954188
 31
0.0
  0
LINE
  5
C6C3A
  8
035
 10
-89.994523
 20
6.189896
 30
0.0
 11
-88.038279
 21
6.189896
 31
0.0
  0
LINE
  5
C6C3B
  8
035
 10
-90.655382
 20
3.208952
 30
0.0
 11
-88.699138
 21
3.208952
 31
0.0
  0
LINE
  5
C6C3C
  8
035
 10
-88.533923
 20
3.954188
 30
0.0
 11
-87.659503
 21
4.326806
 31
0.0
  0
LINE
  5
C6C3D
  8
035
 10
-88.261805
 20
5.181636
 30
0.0
 11
-85.895725
 21
6.189896
 31
0.0
  0
LINE
  5
C6C3E
  8
035
 10
-85.895725
 20
6.189896
 30
0.0
 11
-83.2874
 21
6.189896
 31
0.0
  0
LINE
  5
C6C3F
  8
035
 10
-87.659503
 20
4.326806
 30
0.0
 11
-86.556585
 21
3.208952
 31
0.0
  0
LINE
  5
C6C40
  8
035
 10
-85.692056
 20
5.165197
 30
0.0
 11
-83.76195
 21
3.208952
 31
0.0
  0
LINE
  5
C6C41
  8
035
 10
-85.692056
 20
5.165197
 30
0.0
 11
-83.2874
 21
6.189896
 31
0.0
  0
LINE
  5
C6C42
  8
035
 10
-88.261805
 20
5.181636
 30
0.0
 11
-88.038279
 21
6.189896
 31
0.0
  0
LINE
  5
C6C43
  8
035
 10
-86.556585
 20
3.208952
 30
0.0
 11
-83.76195
 21
3.208952
 31
0.0
  0
TEXT
  5
C6C44
  8
035
 62
     4
 10
-78.273305
 20
3.264636
 30
0.0
 40
2.484848
  1
NINGBO CHINA
 41
0.85
 51
15.0
  7
HELV
  0
LINE
  5
C6C45
  8
035
 10
-118.523691
 20
5.661922
 30
0.0
 11
-114.983821
 21
5.661922
 31
0.0
  0
LINE
  5
C6C46
  8
035
 10
-118.6985
 20
4.873411
 30
0.0
 11
-115.438093
 21
4.873411
 31
0.0
  0
LINE
  5
C6C47
  8
035
 10
-118.775644
 20
4.525437
 30
0.0
 11
-115.515237
 21
4.525437
 31
0.0
  0
LINE
  5
C6C48
  8
035
 10
-118.950452
 20
3.736926
 30
0.0
 11
-115.410582
 21
3.736926
 31
0.0
  0
LINE
  5
C6C49
  8
0
 62
     4
 10
-83.394402
 20
6.144299
 30
0.0
 11
-83.348805
 21
6.189896
 31
0.0
  0
LINE
  5
C6C4A
  8
0
 62
     4
 10
-83.784164
 20
3.208952
 30
0.0
 11
-83.772982
 21
3.220134
 31
0.0
  0
LINE
  5
C6C4B
  8
035
 10
-98.58863
 20
5.661922
 30
0.0
 11
-96.900758
 21
5.661922
 31
0.0
  0
LINE
  5
C6C4C
  8
035
 10
-98.808873
 20
4.668471
 30
0.0
 11
-97.176482
 21
4.668471
 31
0.0
  0
LINE
  5
C6C4D
  8
035
 10
-98.886017
 20
4.320497
 30
0.0
 11
-97.147355
 21
4.320497
 31
0.0
  0
LINE
  5
C6C4E
  8
035
 10
-96.900758
 20
5.661922
 30
0.0
 11
-96.767538
 21
5.640125
 31
0.0
  0
LINE
  5
C6C4F
  8
035
 10
-96.767538
 20
5.640125
 30
0.0
 11
-96.652102
 21
5.581648
 31
0.0
  0
LINE
  5
C6C50
  8
035
 10
-96.652102
 20
5.581648
 30
0.0
 11
-96.596691
 21
5.492396
 31
0.0
  0
LINE
  5
C6C51
  8
035
 10
-96.596691
 20
5.492396
 30
0.0
 11
-96.553596
 21
5.384678
 31
0.0
  0
LINE
  5
C6C52
  8
035
 10
-96.553596
 20
5.384678
 30
0.0
 11
-96.552055
 21
5.267729
 31
0.0
  0
LINE
  5
C6C53
  8
035
 10
-96.552055
 20
5.267729
 30
0.0
 11
-96.564368
 21
5.098457
 31
0.0
  0
LINE
  5
C6C54
  8
035
 10
-96.564368
 20
5.098457
 30
0.0
 11
-96.625938
 21
4.995358
 31
0.0
  0
LINE
  5
C6C55
  8
035
 10
-96.625938
 20
4.995358
 30
0.0
 11
-96.735215
 21
4.867633
 31
0.0
  0
LINE
  5
C6C56
  8
035
 10
-96.735215
 20
4.867633
 30
0.0
 11
-96.899908
 21
4.769148
 31
0.0
  0
LINE
  5
C6C57
  8
035
 10
-96.899908
 20
4.769148
 30
0.0
 11
-97.056904
 21
4.68913
 31
0.0
  0
LINE
  5
C6C58
  8
035
 10
-97.056904
 20
4.68913
 30
0.0
 11
-97.176482
 21
4.668471
 31
0.0
  0
LINE
  5
C6C59
  8
035
 10
-97.147355
 20
4.320497
 30
0.0
 11
-97.047898
 21
4.306505
 31
0.0
  0
LINE
  5
C6C5A
  8
035
 10
-97.047898
 20
4.306505
 30
0.0
 11
-96.984057
 21
4.266129
 31
0.0
  0
LINE
  5
C6C5B
  8
035
 10
-96.984057
 20
4.266129
 30
0.0
 11
-96.944974
 21
4.202303
 31
0.0
  0
LINE
  5
C6C5C
  8
035
 10
-96.944974
 20
4.202303
 30
0.0
 11
-96.926734
 21
4.125454
 31
0.0
  0
LINE
  5
C6C5D
  8
035
 10
-96.926734
 20
4.125454
 30
0.0
 11
-96.935761
 21
3.992515
 31
0.0
  0
LINE
  5
C6C5E
  8
035
 62
     3
 10
-99.397082
 20
3.208952
 30
0.0
 11
-99.05706
 21
3.548975
 31
0.0
  0
LINE
  5
C6C5F
  8
035
 62
     3
 10
-96.944113
 20
5.661922
 30
0.0
 11
-96.416138
 21
6.189896
 31
0.0
  0
LINE
  5
C6C60
  8
035
 62
     3
 10
-98.285537
 20
4.320497
 30
0.0
 11
-97.937563
 21
4.668471
 31
0.0
  0
LINE
  5
C6C61
  8
035
 62
     3
 10
-99.77892
 20
3.208952
 30
0.0
 11
-98.948296
 21
4.039576
 31
0.0
  0
LINE
  5
C6C62
  8
035
 62
     3
 10
-97.32595
 20
5.661922
 30
0.0
 11
-96.797976
 21
6.189896
 31
0.0
  0
LINE
  5
C6C63
  8
035
 62
     3
 10
-98.667375
 20
4.320497
 30
0.0
 11
-98.319401
 21
4.668471
 31
0.0
  0
LINE
  5
C6C64
  8
035
 62
     3
 10
-100.160757
 20
3.208952
 30
0.0
 11
-98.701238
 21
4.668471
 31
0.0
  0
LINE
  5
C6C65
  8
035
 62
     3
 10
-97.707788
 20
5.661922
 30
0.0
 11
-97.179814
 21
6.189896
 31
0.0
  0
LINE
  5
C6C66
  8
035
 62
     3
 10
-100.542595
 20
3.208952
 30
0.0
 11
-98.730768
 21
5.020779
 31
0.0
  0
LINE
  5
C6C67
  8
035
 62
     3
 10
-98.089626
 20
5.661922
 30
0.0
 11
-97.561651
 21
6.189896
 31
0.0
  0
LINE
  5
C6C68
  8
035
 62
     3
 10
-100.924433
 20
3.208952
 30
0.0
 11
-98.622005
 21
5.51138
 31
0.0
  0
LINE
  5
C6C69
  8
035
 62
     3
 10
-98.471463
 20
5.661922
 30
0.0
 11
-97.943489
 21
6.189896
 31
0.0
  0
LINE
  5
C6C6A
  8
035
 62
     3
 10
-101.146396
 20
3.368826
 30
0.0
 11
-98.325327
 21
6.189896
 31
0.0
  0
LINE
  5
C6C6B
  8
035
 62
     3
 10
-101.037633
 20
3.859428
 30
0.0
 11
-98.707164
 21
6.189896
 31
0.0
  0
LINE
  5
C6C6C
  8
035
 62
     3
 10
-100.928869
 20
4.350029
 30
0.0
 11
-99.089002
 21
6.189896
 31
0.0
  0
LINE
  5
C6C6D
  8
035
 62
     3
 10
-100.820105
 20
4.840631
 30
0.0
 11
-99.47084
 21
6.189896
 31
0.0
  0
LINE
  5
C6C6E
  8
035
 62
     3
 10
-100.711341
 20
5.331232
 30
0.0
 11
-99.852677
 21
6.189896
 31
0.0
  0
LINE
  5
C6C6F
  8
035
 62
     3
 10
-100.602578
 20
5.821833
 30
0.0
 11
-100.234515
 21
6.189896
 31
0.0
  0
LINE
  5
C6C70
  8
035
 62
     3
 10
-101.361589
 20
5.44466
 30
0.0
 11
-101.331636
 21
5.474613
 31
0.0
  0
LINE
  5
C6C71
  8
035
 62
     3
 10
-103.979134
 20
3.208952
 30
0.0
 11
-103.736339
 21
3.451748
 31
0.0
  0
LINE
  5
C6C72
  8
035
 62
     3
 10
-101.743426
 20
5.44466
 30
0.0
 11
-101.222872
 21
5.965214
 31
0.0
  0
LINE
  5
C6C73
  8
035
 62
     3
 10
-104.360972
 20
3.208952
 30
0.0
 11
-103.627575
 21
3.942349
 31
0.0
  0
LINE
  5
C6C74
  8
035
 62
     3
 10
-102.125264
 20
5.44466
 30
0.0
 11
-101.380028
 21
6.189896
 31
0.0
  0
LINE
  5
C6C75
  8
035
 62
     3
 10
-104.742809
 20
3.208952
 30
0.0
 11
-103.518811
 21
4.43295
 31
0.0
  0
LINE
  5
C6C76
  8
035
 62
     3
 10
-102.507102
 20
5.44466
 30
0.0
 11
-101.761866
 21
6.189896
 31
0.0
  0
LINE
  5
C6C77
  8
035
 62
     3
 10
-105.124647
 20
3.208952
 30
0.0
 11
-103.410048
 21
4.923552
 31
0.0
  0
LINE
  5
C6C78
  8
035
 62
     3
 10
-102.888939
 20
5.44466
 30
0.0
 11
-102.143703
 21
6.189896
 31
0.0
  0
LINE
  5
C6C79
  8
035
 62
     3
 10
-105.506485
 20
3.208952
 30
0.0
 11
-103.301284
 21
5.414153
 31
0.0
  0
LINE
  5
C6C7A
  8
035
 62
     3
 10
-103.270777
 20
5.44466
 30
0.0
 11
-102.525541
 21
6.189896
 31
0.0
  0
LINE
  5
C6C7B
  8
035
 62
     3
 10
-105.825675
 20
3.271599
 30
0.0
 11
-102.907379
 21
6.189896
 31
0.0
  0
LINE
  5
C6C7C
  8
035
 62
     3
 10
-105.716912
 20
3.762201
 30
0.0
 11
-103.289216
 21
6.189896
 31
0.0
  0
LINE
  5
C6C7D
  8
035
 62
     3
 10
-105.608148
 20
4.252802
 30
0.0
 11
-103.671054
 21
6.189896
 31
0.0
  0
LINE
  5
C6C7E
  8
035
 62
     3
 10
-105.499384
 20
4.743403
 30
0.0
 11
-104.052892
 21
6.189896
 31
0.0
  0
LINE
  5
C6C7F
  8
035
 62
     3
 10
-105.390621
 20
5.234005
 30
0.0
 11
-104.434729
 21
6.189896
 31
0.0
  0
LINE
  5
C6C80
  8
035
 62
     3
 10
-105.561803
 20
5.44466
 30
0.0
 11
-104.816567
 21
6.189896
 31
0.0
  0
LINE
  5
C6C81
  8
035
 62
     3
 10
-105.943641
 20
5.44466
 30
0.0
 11
-105.198405
 21
6.189896
 31
0.0
  0
LINE
  5
C6C82
  8
035
 62
     3
 10
-106.325478
 20
5.44466
 30
0.0
 11
-105.580242
 21
6.189896
 31
0.0
  0
LINE
  5
C6C83
  8
035
 62
     3
 10
-108.622384
 20
3.529592
 30
0.0
 11
-108.046189
 21
4.105787
 31
0.0
  0
LINE
  5
C6C84
  8
035
 62
     3
 10
-106.707316
 20
5.44466
 30
0.0
 11
-105.96208
 21
6.189896
 31
0.0
  0
LINE
  5
C6C85
  8
035
 62
     3
 10
-109.201876
 20
3.331938
 30
0.0
 11
-107.937425
 21
4.596388
 31
0.0
  0
LINE
  5
C6C86
  8
035
 62
     3
 10
-107.089154
 20
5.44466
 30
0.0
 11
-106.343918
 21
6.189896
 31
0.0
  0
LINE
  5
C6C87
  8
035
 62
     3
 10
-109.685113
 20
3.230539
 30
0.0
 11
-107.828661
 21
5.08699
 31
0.0
  0
LINE
  5
C6C88
  8
035
 62
     3
 10
-107.131816
 20
5.783835
 30
0.0
 11
-106.725755
 21
6.189896
 31
0.0
  0
LINE
  5
C6C89
  8
035
 62
     3
 10
-110.124204
 20
3.173285
 30
0.0
 11
-107.719898
 21
5.577591
 31
0.0
  0
LINE
  5
C6C8A
  8
035
 62
     3
 10
-110.541142
 20
3.138184
 30
0.0
 11
-107.611134
 21
6.068193
 31
0.0
  0
LINE
  5
C6C8B
  8
035
 62
     3
 10
-110.941366
 20
3.119799
 30
0.0
 11
-107.871268
 21
6.189896
 31
0.0
  0
LINE
  5
C6C8C
  8
035
 62
     3
 10
-111.32681
 20
3.116192
 30
0.0
 11
-110.486292
 21
3.95671
 31
0.0
  0
LINE
  5
C6C8D
  8
035
 62
     3
 10
-110.020108
 20
4.422893
 30
0.0
 11
-108.253106
 21
6.189896
 31
0.0
  0
LINE
  5
C6C8E
  8
035
 62
     3
 10
-111.699013
 20
3.125826
 30
0.0
 11
-110.955072
 21
3.869767
 31
0.0
  0
LINE
  5
C6C8F
  8
035
 62
     3
 10
-109.911345
 20
4.913495
 30
0.0
 11
-108.634944
 21
6.189896
 31
0.0
  0
LINE
  5
C6C90
  8
035
 62
     3
 10
-112.059224
 20
3.147453
 30
0.0
 11
-111.34046
 21
3.866217
 31
0.0
  0
LINE
  5
C6C91
  8
035
 62
     3
 10
-109.802581
 20
5.404096
 30
0.0
 11
-109.016781
 21
6.189896
 31
0.0
  0
LINE
  5
C6C92
  8
035
 62
     3
 10
-112.408468
 20
3.180046
 30
0.0
 11
-111.679477
 21
3.909038
 31
0.0
  0
LINE
  5
C6C93
  8
035
 62
     3
 10
-109.693817
 20
5.894698
 30
0.0
 11
-109.398619
 21
6.189896
 31
0.0
  0
LINE
  5
C6C94
  8
035
 62
     3
 10
-112.746026
 20
3.224326
 30
0.0
 11
-111.971761
 21
3.998592
 31
0.0
  0
LINE
  5
C6C95
  8
035
 62
     3
 10
-113.06743
 20
3.28476
 30
0.0
 11
-112.205545
 21
4.146645
 31
0.0
  0
LINE
  5
C6C96
  8
035
 62
     3
 10
-113.373926
 20
3.360102
 30
0.0
 11
-112.274632
 21
4.459396
 31
0.0
  0
LINE
  5
C6C97
  8
035
 62
     3
 10
-113.66365
 20
3.452215
 30
0.0
 11
-112.165868
 21
4.949997
 31
0.0
  0
LINE
  5
C6C98
  8
035
 62
     3
 10
-113.928373
 20
3.56933
 30
0.0
 11
-112.057104
 21
5.440599
 31
0.0
  0
LINE
  5
C6C99
  8
035
 62
     3
 10
-114.170311
 20
3.70923
 30
0.0
 11
-111.948341
 21
5.9312
 31
0.0
  0
LINE
  5
C6C9A
  8
035
 62
     3
 10
-114.366163
 20
3.895216
 30
0.0
 11
-112.071483
 21
6.189896
 31
0.0
  0
LINE
  5
C6C9B
  8
035
 62
     3
 10
-114.357337
 20
4.285879
 30
0.0
 11
-112.45332
 21
6.189896
 31
0.0
  0
LINE
  5
C6C9C
  8
035
 62
     3
 10
-115.816102
 20
3.208952
 30
0.0
 11
-115.445462
 21
3.579592
 31
0.0
  0
LINE
  5
C6C9D
  8
035
 62
     3
 10
-114.248573
 20
4.776481
 30
0.0
 11
-112.835158
 21
6.189896
 31
0.0
  0
LINE
  5
C6C9E
  8
035
 62
     3
 10
-116.197939
 20
3.208952
 30
0.0
 11
-115.669965
 21
3.736926
 31
0.0
  0
LINE
  5
C6C9F
  8
035
 62
     3
 10
-114.13981
 20
5.267082
 30
0.0
 11
-113.216996
 21
6.189896
 31
0.0
  0
LINE
  5
C6CA0
  8
035
 62
     3
 10
-116.579777
 20
3.208952
 30
0.0
 11
-116.051803
 21
3.736926
 31
0.0
  0
LINE
  5
C6CA1
  8
035
 62
     3
 10
-114.031046
 20
5.757683
 30
0.0
 11
-113.598833
 21
6.189896
 31
0.0
  0
LINE
  5
C6CA2
  8
035
 62
     3
 10
-116.961615
 20
3.208952
 30
0.0
 11
-116.43364
 21
3.736926
 31
0.0
  0
LINE
  5
C6CA3
  8
035
 62
     3
 10
-115.64513
 20
4.525437
 30
0.0
 11
-115.478238
 21
4.692329
 31
0.0
  0
LINE
  5
C6CA4
  8
035
 62
     3
 10
-117.343452
 20
3.208952
 30
0.0
 11
-116.815478
 21
3.736926
 31
0.0
  0
LINE
  5
C6CA5
  8
035
 62
     3
 10
-116.026967
 20
4.525437
 30
0.0
 11
-115.678993
 21
4.873411
 31
0.0
  0
LINE
  5
C6CA6
  8
035
 62
     3
 10
-117.72529
 20
3.208952
 30
0.0
 11
-117.197316
 21
3.736926
 31
0.0
  0
LINE
  5
C6CA7
  8
035
 62
     3
 10
-115.27232
 20
5.661922
 30
0.0
 11
-114.901643
 21
6.032599
 31
0.0
  0
LINE
  5
C6CA8
  8
035
 62
     3
 10
-116.408805
 20
4.525437
 30
0.0
 11
-116.060831
 21
4.873411
 31
0.0
  0
LINE
  5
C6CA9
  8
035
 62
     3
 10
-118.107128
 20
3.208952
 30
0.0
 11
-117.579153
 21
3.736926
 31
0.0
  0
LINE
  5
C6CAA
  8
035
 62
     3
 10
-115.654158
 20
5.661922
 30
0.0
 11
-115.126184
 21
6.189896
 31
0.0
  0
LINE
  5
C6CAB
  8
035
 62
     3
 10
-116.790643
 20
4.525437
 30
0.0
 11
-116.442669
 21
4.873411
 31
0.0
  0
LINE
  5
C6CAC
  8
035
 62
     3
 10
-118.488965
 20
3.208952
 30
0.0
 11
-117.960991
 21
3.736926
 31
0.0
  0
LINE
  5
C6CAD
  8
035
 62
     3
 10
-116.035996
 20
5.661922
 30
0.0
 11
-115.508022
 21
6.189896
 31
0.0
  0
LINE
  5
C6CAE
  8
035
 62
     3
 10
-117.17248
 20
4.525437
 30
0.0
 11
-116.824506
 21
4.873411
 31
0.0
  0
LINE
  5
C6CAF
  8
035
 62
     3
 10
-118.870803
 20
3.208952
 30
0.0
 11
-118.342829
 21
3.736926
 31
0.0
  0
LINE
  5
C6CB0
  8
035
 62
     3
 10
-116.417833
 20
5.661922
 30
0.0
 11
-115.889859
 21
6.189896
 31
0.0
  0
LINE
  5
C6CB1
  8
035
 62
     3
 10
-117.554318
 20
4.525437
 30
0.0
 11
-117.206344
 21
4.873411
 31
0.0
  0
LINE
  5
C6CB2
  8
035
 62
     3
 10
-119.252641
 20
3.208952
 30
0.0
 11
-118.724666
 21
3.736926
 31
0.0
  0
LINE
  5
C6CB3
  8
035
 62
     3
 10
-116.799671
 20
5.661922
 30
0.0
 11
-116.271697
 21
6.189896
 31
0.0
  0
LINE
  5
C6CB4
  8
035
 62
     3
 10
-117.936156
 20
4.525437
 30
0.0
 11
-117.588182
 21
4.873411
 31
0.0
  0
LINE
  5
C6CB5
  8
035
 62
     3
 10
-119.634478
 20
3.208952
 30
0.0
 11
-118.906002
 21
3.937428
 31
0.0
  0
LINE
  5
C6CB6
  8
035
 62
     3
 10
-117.181509
 20
5.661922
 30
0.0
 11
-116.653535
 21
6.189896
 31
0.0
  0
LINE
  5
C6CB7
  8
035
 62
     3
 10
-118.317993
 20
4.525437
 30
0.0
 11
-117.970019
 21
4.873411
 31
0.0
  0
LINE
  5
C6CB8
  8
035
 62
     3
 10
-120.016316
 20
3.208952
 30
0.0
 11
-118.797238
 21
4.42803
 31
0.0
  0
LINE
  5
C6CB9
  8
035
 62
     3
 10
-117.563346
 20
5.661922
 30
0.0
 11
-117.035372
 21
6.189896
 31
0.0
  0
LINE
  5
C6CBA
  8
035
 62
     3
 10
-118.699831
 20
4.525437
 30
0.0
 11
-118.351857
 21
4.873411
 31
0.0
  0
LINE
  5
C6CBB
  8
035
 62
     3
 10
-120.398154
 20
3.208952
 30
0.0
 11
-118.688475
 21
4.918631
 31
0.0
  0
LINE
  5
C6CBC
  8
035
 62
     3
 10
-117.945184
 20
5.661922
 30
0.0
 11
-117.41721
 21
6.189896
 31
0.0
  0
LINE
  5
C6CBD
  8
035
 62
     3
 10
-120.779991
 20
3.208952
 30
0.0
 11
-118.579711
 21
5.409232
 31
0.0
  0
LINE
  5
C6CBE
  8
035
 62
     3
 10
-118.327022
 20
5.661922
 30
0.0
 11
-117.799048
 21
6.189896
 31
0.0
  0
LINE
  5
C6CBF
  8
035
 62
     3
 10
-121.104103
 20
3.266678
 30
0.0
 11
-118.180885
 21
6.189896
 31
0.0
  0
LINE
  5
C6CC0
  8
035
 62
     3
 10
-120.995339
 20
3.75728
 30
0.0
 11
-118.562723
 21
6.189896
 31
0.0
  0
LINE
  5
C6CC1
  8
035
 62
     3
 10
-120.886575
 20
4.247881
 30
0.0
 11
-118.944561
 21
6.189896
 31
0.0
  0
LINE
  5
C6CC2
  8
035
 62
     3
 10
-122.307342
 20
3.208952
 30
0.0
 11
-122.094389
 21
3.421905
 31
0.0
  0
LINE
  5
C6CC3
  8
035
 62
     3
 10
-120.777811
 20
4.738483
 30
0.0
 11
-119.326398
 21
6.189896
 31
0.0
  0
LINE
  5
C6CC4
  8
035
 62
     3
 10
-122.68918
 20
3.208952
 30
0.0
 11
-121.985625
 21
3.912506
 31
0.0
  0
LINE
  5
C6CC5
  8
035
 62
     3
 10
-120.669048
 20
5.229084
 30
0.0
 11
-119.708236
 21
6.189896
 31
0.0
  0
LINE
  5
C6CC6
  8
035
 62
     3
 10
-123.071017
 20
3.208952
 30
0.0
 11
-121.876862
 21
4.403108
 31
0.0
  0
LINE
  5
C6CC7
  8
035
 62
     3
 10
-120.560284
 20
5.719685
 30
0.0
 11
-120.090074
 21
6.189896
 31
0.0
  0
LINE
  5
C6CC8
  8
035
 62
     3
 10
-123.452855
 20
3.208952
 30
0.0
 11
-121.768098
 21
4.893709
 31
0.0
  0
LINE
  5
C6CC9
  8
035
 62
     3
 10
-123.834692
 20
3.208952
 30
0.0
 11
-121.659334
 21
5.38431
 31
0.0
  0
LINE
  5
C6CCA
  8
035
 62
     3
 10
-124.21653
 20
3.208952
 30
0.0
 11
-121.550571
 21
5.874912
 31
0.0
  0
LINE
  5
C6CCB
  8
035
 62
     3
 10
-124.537796
 20
3.269524
 30
0.0
 11
-121.617424
 21
6.189896
 31
0.0
  0
LINE
  5
C6CCC
  8
035
 62
     3
 10
-124.738808
 20
3.450349
 30
0.0
 11
-121.999262
 21
6.189896
 31
0.0
  0
LINE
  5
C6CCD
  8
035
 62
     3
 10
-124.939821
 20
3.631175
 30
0.0
 11
-122.381099
 21
6.189896
 31
0.0
  0
LINE
  5
C6CCE
  8
035
 62
     3
 10
-125.140833
 20
3.812
 30
0.0
 11
-123.964738
 21
4.988095
 31
0.0
  0
LINE
  5
C6CCF
  8
035
 62
     3
 10
-123.748671
 20
5.204162
 30
0.0
 11
-122.762937
 21
6.189896
 31
0.0
  0
LINE
  5
C6CD0
  8
035
 62
     3
 10
-125.341845
 20
3.992825
 30
0.0
 11
-124.188867
 21
5.145803
 31
0.0
  0
LINE
  5
C6CD1
  8
035
 62
     3
 10
-123.639907
 20
5.694763
 30
0.0
 11
-123.144775
 21
6.189896
 31
0.0
  0
LINE
  5
C6CD2
  8
035
 62
     3
 10
-125.542858
 20
4.173651
 30
0.0
 11
-124.412997
 21
5.303512
 31
0.0
  0
LINE
  5
C6CD3
  8
035
 62
     3
 10
-123.531144
 20
6.185365
 30
0.0
 11
-123.526612
 21
6.189896
 31
0.0
  0
LINE
  5
C6CD4
  8
035
 62
     3
 10
-126.889394
 20
3.208952
 30
0.0
 11
-126.653979
 21
3.444367
 31
0.0
  0
LINE
  5
C6CD5
  8
035
 62
     3
 10
-125.74387
 20
4.354476
 30
0.0
 11
-124.637126
 21
5.46122
 31
0.0
  0
LINE
  5
C6CD6
  8
035
 62
     3
 10
-127.271231
 20
3.208952
 30
0.0
 11
-126.545216
 21
3.934968
 31
0.0
  0
LINE
  5
C6CD7
  8
035
 62
     3
 10
-125.944883
 20
4.535301
 30
0.0
 11
-124.861255
 21
5.618929
 31
0.0
  0
LINE
  5
C6CD8
  8
035
 62
     3
 10
-127.653069
 20
3.208952
 30
0.0
 11
-126.436452
 21
4.425569
 31
0.0
  0
LINE
  5
C6CD9
  8
035
 62
     3
 10
-126.145895
 20
4.716126
 30
0.0
 11
-125.085384
 21
5.776637
 31
0.0
  0
LINE
  5
C6CDA
  8
035
 62
     3
 10
-128.034907
 20
3.208952
 30
0.0
 11
-125.309514
 21
5.934345
 31
0.0
  0
LINE
  5
C6CDB
  8
035
 62
     3
 10
-128.416744
 20
3.208952
 30
0.0
 11
-125.533643
 21
6.092054
 31
0.0
  0
LINE
  5
C6CDC
  8
035
 62
     3
 10
-128.743316
 20
3.264218
 30
0.0
 11
-125.817638
 21
6.189896
 31
0.0
  0
LINE
  5
C6CDD
  8
035
 62
     3
 10
-128.634552
 20
3.75482
 30
0.0
 11
-126.199476
 21
6.189896
 31
0.0
  0
LINE
  5
C6CDE
  8
035
 62
     3
 10
-128.525789
 20
4.245421
 30
0.0
 11
-126.581314
 21
6.189896
 31
0.0
  0
LINE
  5
C6CDF
  8
035
 62
     3
 10
-128.417025
 20
4.736022
 30
0.0
 11
-126.963151
 21
6.189896
 31
0.0
  0
LINE
  5
C6CE0
  8
035
 62
     3
 10
-128.308261
 20
5.226624
 30
0.0
 11
-127.344989
 21
6.189896
 31
0.0
  0
LINE
  5
C6CE1
  8
035
 62
     3
 10
-128.199498
 20
5.717225
 30
0.0
 11
-127.726827
 21
6.189896
 31
0.0
  0
LINE
  5
C6CE2
  8
035
 62
     3
 10
-97.9037
 20
4.320497
 30
0.0
 11
-97.555725
 21
4.668471
 31
0.0
  0
LINE
  5
C6CE3
  8
035
 62
     3
 10
-96.648443
 20
5.575754
 30
0.0
 11
-96.034301
 21
6.189896
 31
0.0
  0
LINE
  5
C6CE4
  8
035
 62
     3
 10
-97.521862
 20
4.320497
 30
0.0
 11
-97.173346
 21
4.669013
 31
0.0
  0
LINE
  5
C6CE5
  8
035
 62
     3
 10
-96.552349
 20
5.29001
 30
0.0
 11
-95.652463
 21
6.189896
 31
0.0
  0
LINE
  5
C6CE6
  8
035
 62
     3
 10
-97.140928
 20
4.319593
 30
0.0
 11
-95.27083
 21
6.189691
 31
0.0
  0
LINE
  5
C6CE7
  8
035
 62
     3
 10
-96.931816
 20
4.146867
 30
0.0
 11
-94.929703
 21
6.148981
 31
0.0
  0
LINE
  5
C6CE8
  8
035
 62
     3
 10
-96.952835
 20
3.744011
 30
0.0
 11
-94.646299
 21
6.050547
 31
0.0
  0
LINE
  5
C6CE9
  8
035
 62
     3
 10
-96.962122
 20
3.352887
 30
0.0
 11
-94.418346
 21
5.896663
 31
0.0
  0
LINE
  5
C6CEA
  8
035
 62
     3
 10
-96.724219
 20
3.208952
 30
0.0
 11
-94.267355
 21
5.665815
 31
0.0
  0
LINE
  5
C6CEB
  8
035
 62
     3
 10
-96.342381
 20
3.208952
 30
0.0
 11
-95.02298
 21
4.528353
 31
0.0
  0
LINE
  5
C6CEC
  8
035
 62
     3
 10
-94.969135
 20
4.582198
 30
0.0
 11
-94.28736
 21
5.263973
 31
0.0
  0
LINE
  5
C6CED
  8
035
 62
     3
 10
-95.960543
 20
3.208952
 30
0.0
 11
-94.873526
 21
4.295969
 31
0.0
  0
LINE
  5
C6CEE
  8
035
 62
     3
 10
-93.333356
 20
5.836139
 30
0.0
 11
-92.9796
 21
6.189896
 31
0.0
  0
LINE
  5
C6CEF
  8
035
 62
     3
 10
-95.578706
 20
3.208952
 30
0.0
 11
-94.892505
 21
3.895153
 31
0.0
  0
LINE
  5
C6CF0
  8
035
 62
     3
 10
-93.44212
 20
5.345538
 30
0.0
 11
-92.597762
 21
6.189896
 31
0.0
  0
LINE
  5
C6CF1
  8
035
 62
     3
 10
-95.196868
 20
3.208952
 30
0.0
 11
-94.919803
 21
3.486017
 31
0.0
  0
LINE
  5
C6CF2
  8
035
 62
     3
 10
-93.550883
 20
4.854937
 30
0.0
 11
-92.215924
 21
6.189896
 31
0.0
  0
LINE
  5
C6CF3
  8
035
 62
     3
 10
-93.659647
 20
4.364335
 30
0.0
 11
-91.834087
 21
6.189896
 31
0.0
  0
LINE
  5
C6CF4
  8
035
 62
     3
 10
-93.768411
 20
3.873734
 30
0.0
 11
-91.452249
 21
6.189896
 31
0.0
  0
LINE
  5
C6CF5
  8
035
 62
     3
 10
-93.877174
 20
3.383133
 30
0.0
 11
-91.244019
 21
6.016288
 31
0.0
  0
LINE
  5
C6CF6
  8
035
 62
     3
 10
-93.669517
 20
3.208952
 30
0.0
 11
-91.352783
 21
5.525687
 31
0.0
  0
LINE
  5
C6CF7
  8
035
 62
     3
 10
-93.28768
 20
3.208952
 30
0.0
 11
-91.461547
 21
5.035085
 31
0.0
  0
LINE
  5
C6CF8
  8
035
 62
     3
 10
-92.905842
 20
3.208952
 30
0.0
 11
-91.57031
 21
4.544484
 31
0.0
  0
LINE
  5
C6CF9
  8
035
 62
     3
 10
-90.014355
 20
6.100439
 30
0.0
 11
-89.924898
 21
6.189896
 31
0.0
  0
LINE
  5
C6CFA
  8
035
 62
     3
 10
-92.524004
 20
3.208952
 30
0.0
 11
-91.679074
 21
4.053882
 31
0.0
  0
LINE
  5
C6CFB
  8
035
 62
     3
 10
-90.123119
 20
5.609838
 30
0.0
 11
-89.543061
 21
6.189896
 31
0.0
  0
LINE
  5
C6CFC
  8
035
 62
     3
 10
-92.142167
 20
3.208952
 30
0.0
 11
-91.787838
 21
3.563281
 31
0.0
  0
LINE
  5
C6CFD
  8
035
 62
     3
 10
-90.231882
 20
5.119236
 30
0.0
 11
-89.161223
 21
6.189896
 31
0.0
  0
LINE
  5
C6CFE
  8
035
 62
     3
 10
-90.340646
 20
4.628635
 30
0.0
 11
-88.779385
 21
6.189896
 31
0.0
  0
LINE
  5
C6CFF
  8
035
 62
     3
 10
-90.44941
 20
4.138034
 30
0.0
 11
-88.397548
 21
6.189896
 31
0.0
  0
LINE
  5
C6D00
  8
035
 62
     3
 10
-90.558173
 20
3.647432
 30
0.0
 11
-88.044707
 21
6.160899
 31
0.0
  0
LINE
  5
C6D01
  8
035
 62
     3
 10
-90.614816
 20
3.208952
 30
0.0
 11
-88.153471
 21
5.670297
 31
0.0
  0
LINE
  5
C6D02
  8
035
 62
     3
 10
-90.232978
 20
3.208952
 30
0.0
 11
-88.259174
 21
5.182756
 31
0.0
  0
LINE
  5
C6D03
  8
035
 62
     3
 10
-89.851141
 20
3.208952
 30
0.0
 11
-87.593799
 21
5.466293
 31
0.0
  0
LINE
  5
C6D04
  8
035
 62
     3
 10
-89.469303
 20
3.208952
 30
0.0
 11
-86.928425
 21
5.74983
 31
0.0
  0
LINE
  5
C6D05
  8
035
 62
     3
 10
-89.087465
 20
3.208952
 30
0.0
 11
-88.588526
 21
3.707892
 31
0.0
  0
LINE
  5
C6D06
  8
035
 62
     3
 10
-88.199885
 20
4.096532
 30
0.0
 11
-86.26305
 21
6.033367
 31
0.0
  0
LINE
  5
C6D07
  8
035
 62
     3
 10
-88.705628
 20
3.208952
 30
0.0
 11
-88.697289
 21
3.21729
 31
0.0
  0
LINE
  5
C6D08
  8
035
 62
     3
 10
-87.623879
 20
4.2907
 30
0.0
 11
-85.724684
 21
6.189896
 31
0.0
  0
LINE
  5
C6D09
  8
035
 62
     3
 10
-87.434245
 20
4.098498
 30
0.0
 11
-85.342846
 21
6.189896
 31
0.0
  0
LINE
  5
C6D0A
  8
035
 62
     3
 10
-87.24461
 20
3.906295
 30
0.0
 11
-84.961009
 21
6.189896
 31
0.0
  0
LINE
  5
C6D0B
  8
035
 62
     3
 10
-87.054975
 20
3.714092
 30
0.0
 11
-85.64826
 21
5.120807
 31
0.0
  0
LINE
  5
C6D0C
  8
035
 62
     3
 10
-85.538387
 20
5.23068
 30
0.0
 11
-84.579171
 21
6.189896
 31
0.0
  0
LINE
  5
C6D0D
  8
035
 62
     3
 10
-86.86534
 20
3.521889
 30
0.0
 11
-85.458625
 21
4.928604
 31
0.0
  0
LINE
  5
C6D0E
  8
035
 62
     3
 10
-84.873013
 20
5.514217
 30
0.0
 11
-84.197333
 21
6.189896
 31
0.0
  0
LINE
  5
C6D0F
  8
035
 62
     3
 10
-86.675705
 20
3.329686
 30
0.0
 11
-85.26899
 21
4.736401
 31
0.0
  0
LINE
  5
C6D10
  8
035
 62
     3
 10
-84.207638
 20
5.797754
 30
0.0
 11
-83.815496
 21
6.189896
 31
0.0
  0
LINE
  5
C6D11
  8
035
 62
     3
 10
-86.414602
 20
3.208952
 30
0.0
 11
-85.079355
 21
4.544198
 31
0.0
  0
LINE
  5
C6D12
  8
035
 62
     3
 10
-83.542263
 20
6.08129
 30
0.0
 11
-83.433658
 21
6.189896
 31
0.0
  0
LINE
  5
C6D13
  8
035
 62
     3
 10
-86.032764
 20
3.208952
 30
0.0
 11
-84.889721
 21
4.351996
 31
0.0
  0
LINE
  5
C6D14
  8
035
 62
     3
 10
-85.650926
 20
3.208952
 30
0.0
 11
-84.700086
 21
4.159793
 31
0.0
  0
LINE
  5
C6D15
  8
035
 62
     3
 10
-85.269089
 20
3.208952
 30
0.0
 11
-84.510451
 21
3.96759
 31
0.0
  0
LINE
  5
C6D16
  8
035
 62
     3
 10
-84.887251
 20
3.208952
 30
0.0
 11
-84.320816
 21
3.775387
 31
0.0
  0
LINE
  5
C6D17
  8
035
 62
     3
 10
-84.505413
 20
3.208952
 30
0.0
 11
-84.131182
 21
3.583184
 31
0.0
  0
LINE
  5
C6D18
  8
035
 62
     3
 10
-84.123576
 20
3.208952
 30
0.0
 11
-83.941547
 21
3.390981
 31
0.0
  0
LINE
  5
C6D19
  8
035
 62
     3
 10
-96.613061
 20
3.208952
 30
0.0
 11
-96.96539
 21
3.561281
 31
0.0
  0
LINE
  5
C6D1A
  8
035
 62
     3
 10
-98.675262
 20
5.271153
 30
0.0
 11
-99.594005
 21
6.189896
 31
0.0
  0
LINE
  5
C6D1B
  8
035
 62
     3
 10
-97.724606
 20
4.320497
 30
0.0
 11
-98.07258
 21
4.668471
 31
0.0
  0
LINE
  5
C6D1C
  8
035
 62
     3
 10
-98.106444
 20
4.320497
 30
0.0
 11
-98.454418
 21
4.668471
 31
0.0
  0
LINE
  5
C6D1D
  8
035
 62
     3
 10
-98.744552
 20
4.958605
 30
0.0
 11
-99.975843
 21
6.189896
 31
0.0
  0
LINE
  5
C6D1E
  8
035
 62
     3
 10
-98.488282
 20
4.320497
 30
0.0
 11
-100.35768
 21
6.189896
 31
0.0
  0
LINE
  5
C6D1F
  8
035
 62
     3
 10
-98.870119
 20
4.320497
 30
0.0
 11
-100.560637
 21
6.011015
 31
0.0
  0
LINE
  5
C6D20
  8
035
 62
     3
 10
-98.952422
 20
4.020963
 30
0.0
 11
-100.629927
 21
5.698467
 31
0.0
  0
LINE
  5
C6D21
  8
035
 62
     3
 10
-99.021712
 20
3.708415
 30
0.0
 11
-100.699217
 21
5.38592
 31
0.0
  0
LINE
  5
C6D22
  8
035
 62
     3
 10
-101.232969
 20
5.919672
 30
0.0
 11
-101.503193
 21
6.189896
 31
0.0
  0
LINE
  5
C6D23
  8
035
 62
     3
 10
-99.091003
 20
3.395868
 30
0.0
 11
-100.768507
 21
5.073372
 31
0.0
  0
LINE
  5
C6D24
  8
035
 62
     3
 10
-101.302259
 20
5.607124
 30
0.0
 11
-101.885031
 21
6.189896
 31
0.0
  0
LINE
  5
C6D25
  8
035
 62
     3
 10
-99.285925
 20
3.208952
 30
0.0
 11
-100.837798
 21
4.760825
 31
0.0
  0
LINE
  5
C6D26
  8
035
 62
     3
 10
-101.521633
 20
5.44466
 30
0.0
 11
-102.266869
 21
6.189896
 31
0.0
  0
LINE
  5
C6D27
  8
035
 62
     3
 10
-99.667763
 20
3.208952
 30
0.0
 11
-100.907088
 21
4.448277
 31
0.0
  0
LINE
  5
C6D28
  8
035
 62
     3
 10
-101.90347
 20
5.44466
 30
0.0
 11
-102.648706
 21
6.189896
 31
0.0
  0
LINE
  5
C6D29
  8
035
 62
     3
 10
-100.0496
 20
3.208952
 30
0.0
 11
-100.976378
 21
4.13573
 31
0.0
  0
LINE
  5
C6D2A
  8
035
 62
     3
 10
-102.285308
 20
5.44466
 30
0.0
 11
-103.030544
 21
6.189896
 31
0.0
  0
LINE
  5
C6D2B
  8
035
 62
     3
 10
-100.431438
 20
3.208952
 30
0.0
 11
-101.045668
 21
3.823182
 31
0.0
  0
LINE
  5
C6D2C
  8
035
 62
     3
 10
-102.667146
 20
5.44466
 30
0.0
 11
-103.412382
 21
6.189896
 31
0.0
  0
LINE
  5
C6D2D
  8
035
 62
     3
 10
-100.813276
 20
3.208952
 30
0.0
 11
-101.114958
 21
3.510635
 31
0.0
  0
LINE
  5
C6D2E
  8
035
 62
     3
 10
-103.048983
 20
5.44466
 30
0.0
 11
-103.794219
 21
6.189896
 31
0.0
  0
LINE
  5
C6D2F
  8
035
 62
     3
 10
-103.319254
 20
5.333093
 30
0.0
 11
-104.176057
 21
6.189896
 31
0.0
  0
LINE
  5
C6D30
  8
035
 62
     3
 10
-103.388545
 20
5.020546
 30
0.0
 11
-104.557895
 21
6.189896
 31
0.0
  0
LINE
  5
C6D31
  8
035
 62
     3
 10
-103.457835
 20
4.707998
 30
0.0
 11
-104.939732
 21
6.189896
 31
0.0
  0
LINE
  5
C6D32
  8
035
 62
     3
 10
-103.527125
 20
4.395451
 30
0.0
 11
-105.32157
 21
6.189896
 31
0.0
  0
LINE
  5
C6D33
  8
035
 62
     3
 10
-103.596415
 20
4.082903
 30
0.0
 11
-105.703408
 21
6.189896
 31
0.0
  0
LINE
  5
C6D34
  8
035
 62
     3
 10
-103.665705
 20
3.770356
 30
0.0
 11
-106.085245
 21
6.189896
 31
0.0
  0
LINE
  5
C6D35
  8
035
 62
     3
 10
-103.734995
 20
3.457808
 30
0.0
 11
-105.4125
 21
5.135313
 31
0.0
  0
LINE
  5
C6D36
  8
035
 62
     3
 10
-105.721847
 20
5.44466
 30
0.0
 11
-106.467083
 21
6.189896
 31
0.0
  0
LINE
  5
C6D37
  8
035
 62
     3
 10
-103.867977
 20
3.208952
 30
0.0
 11
-105.48179
 21
4.822765
 31
0.0
  0
LINE
  5
C6D38
  8
035
 62
     3
 10
-106.103685
 20
5.44466
 30
0.0
 11
-106.848921
 21
6.189896
 31
0.0
  0
LINE
  5
C6D39
  8
035
 62
     3
 10
-104.249815
 20
3.208952
 30
0.0
 11
-105.55108
 21
4.510218
 31
0.0
  0
LINE
  5
C6D3A
  8
035
 62
     3
 10
-106.485522
 20
5.44466
 30
0.0
 11
-107.076085
 21
6.035222
 31
0.0
  0
LINE
  5
C6D3B
  8
035
 62
     3
 10
-104.631652
 20
3.208952
 30
0.0
 11
-105.62037
 21
4.19767
 31
0.0
  0
LINE
  5
C6D3C
  8
035
 62
     3
 10
-107.589314
 20
6.166614
 30
0.0
 11
-107.612596
 21
6.189896
 31
0.0
  0
LINE
  5
C6D3D
  8
035
 62
     3
 10
-106.86736
 20
5.44466
 30
0.0
 11
-107.145375
 21
5.722675
 31
0.0
  0
LINE
  5
C6D3E
  8
035
 62
     3
 10
-105.01349
 20
3.208952
 30
0.0
 11
-105.689661
 21
3.885123
 31
0.0
  0
LINE
  5
C6D3F
  8
035
 62
     3
 10
-107.658605
 20
5.854067
 30
0.0
 11
-107.994434
 21
6.189896
 31
0.0
  0
LINE
  5
C6D40
  8
035
 62
     3
 10
-105.395328
 20
3.208952
 30
0.0
 11
-105.758951
 21
3.572575
 31
0.0
  0
LINE
  5
C6D41
  8
035
 62
     3
 10
-107.727895
 20
5.541519
 30
0.0
 11
-108.376271
 21
6.189896
 31
0.0
  0
LINE
  5
C6D42
  8
035
 62
     3
 10
-105.777165
 20
3.208952
 30
0.0
 11
-105.828241
 21
3.260028
 31
0.0
  0
LINE
  5
C6D43
  8
035
 62
     3
 10
-107.797185
 20
5.228972
 30
0.0
 11
-108.758109
 21
6.189896
 31
0.0
  0
LINE
  5
C6D44
  8
035
 62
     3
 10
-107.866475
 20
4.916424
 30
0.0
 11
-109.139947
 21
6.189896
 31
0.0
  0
LINE
  5
C6D45
  8
035
 62
     3
 10
-107.935765
 20
4.603877
 30
0.0
 11
-109.521784
 21
6.189896
 31
0.0
  0
LINE
  5
C6D46
  8
035
 62
     3
 10
-108.005055
 20
4.291329
 30
0.0
 11
-109.678321
 21
5.964595
 31
0.0
  0
LINE
  5
C6D47
  8
035
 62
     3
 10
-108.074345
 20
3.978782
 30
0.0
 11
-109.747611
 21
5.652048
 31
0.0
  0
LINE
  5
C6D48
  8
035
 62
     3
 10
-108.231865
 20
3.754464
 30
0.0
 11
-109.816902
 21
5.3395
 31
0.0
  0
LINE
  5
C6D49
  8
035
 62
     3
 10
-108.467497
 20
3.608258
 30
0.0
 11
-109.886192
 21
5.026953
 31
0.0
  0
LINE
  5
C6D4A
  8
035
 62
     3
 10
-108.725252
 20
3.484176
 30
0.0
 11
-109.955482
 21
4.714405
 31
0.0
  0
LINE
  5
C6D4B
  8
035
 62
     3
 10
-109.007827
 20
3.384913
 30
0.0
 11
-110.024772
 21
4.401858
 31
0.0
  0
LINE
  5
C6D4C
  8
035
 62
     3
 10
-109.310216
 20
3.305464
 30
0.0
 11
-110.145981
 21
4.141229
 31
0.0
  0
LINE
  5
C6D4D
  8
035
 62
     3
 10
-111.946093
 20
5.941341
 30
0.0
 11
-112.194648
 21
6.189896
 31
0.0
  0
LINE
  5
C6D4E
  8
035
 62
     3
 10
-109.627062
 20
3.240473
 30
0.0
 11
-110.381824
 21
3.995235
 31
0.0
  0
LINE
  5
C6D4F
  8
035
 62
     3
 10
-112.015383
 20
5.628793
 30
0.0
 11
-112.576485
 21
6.189896
 31
0.0
  0
LINE
  5
C6D50
  8
035
 62
     3
 10
-109.960031
 20
3.191604
 30
0.0
 11
-110.67555
 21
3.907123
 31
0.0
  0
LINE
  5
C6D51
  8
035
 62
     3
 10
-112.084673
 20
5.316246
 30
0.0
 11
-112.958323
 21
6.189896
 31
0.0
  0
LINE
  5
C6D52
  8
035
 62
     3
 10
-110.306217
 20
3.155952
 30
0.0
 11
-111.015833
 21
3.865568
 31
0.0
  0
LINE
  5
C6D53
  8
035
 62
     3
 10
-112.153963
 20
5.003698
 30
0.0
 11
-113.340161
 21
6.189896
 31
0.0
  0
LINE
  5
C6D54
  8
035
 62
     3
 10
-110.663101
 20
3.130998
 30
0.0
 11
-111.402906
 21
3.870803
 31
0.0
  0
LINE
  5
C6D55
  8
035
 62
     3
 10
-112.223253
 20
4.69115
 30
0.0
 11
-113.721998
 21
6.189896
 31
0.0
  0
LINE
  5
C6D56
  8
035
 62
     3
 10
-111.031655
 20
3.117714
 30
0.0
 11
-111.876456
 21
3.962515
 31
0.0
  0
LINE
  5
C6D57
  8
035
 62
     3
 10
-112.292543
 20
4.378603
 30
0.0
 11
-113.965823
 21
6.051883
 31
0.0
  0
LINE
  5
C6D58
  8
035
 62
     3
 10
-111.413055
 20
3.117277
 30
0.0
 11
-114.035113
 21
5.739336
 31
0.0
  0
LINE
  5
C6D59
  8
035
 62
     3
 10
-111.808746
 20
3.13113
 30
0.0
 11
-114.104404
 21
5.426788
 31
0.0
  0
LINE
  5
C6D5A
  8
035
 62
     3
 10
-114.866906
 20
6.18929
 30
0.0
 11
-114.867511
 21
6.189896
 31
0.0
  0
LINE
  5
C6D5B
  8
035
 62
     3
 10
-112.220533
 20
3.16108
 30
0.0
 11
-114.173694
 21
5.11424
 31
0.0
  0
LINE
  5
C6D5C
  8
035
 62
     3
 10
-114.936196
 20
5.876743
 30
0.0
 11
-115.249349
 21
6.189896
 31
0.0
  0
LINE
  5
C6D5D
  8
035
 62
     3
 10
-112.651351
 20
3.21006
 30
0.0
 11
-114.242984
 21
4.801693
 31
0.0
  0
LINE
  5
C6D5E
  8
035
 62
     3
 10
-115.103213
 20
5.661922
 30
0.0
 11
-115.631187
 21
6.189896
 31
0.0
  0
LINE
  5
C6D5F
  8
035
 62
     3
 10
-113.119437
 20
3.296308
 30
0.0
 11
-114.312274
 21
4.489145
 31
0.0
  0
LINE
  5
C6D60
  8
035
 62
     3
 10
-115.48505
 20
5.661922
 30
0.0
 11
-116.013024
 21
6.189896
 31
0.0
  0
LINE
  5
C6D61
  8
035
 62
     3
 10
-113.653284
 20
3.448318
 30
0.0
 11
-114.381564
 21
4.176598
 31
0.0
  0
LINE
  5
C6D62
  8
035
 62
     3
 10
-115.866888
 20
5.661922
 30
0.0
 11
-116.394862
 21
6.189896
 31
0.0
  0
LINE
  5
C6D63
  8
035
 62
     3
 10
-115.442107
 20
4.855303
 30
0.0
 11
-115.460215
 21
4.873411
 31
0.0
  0
LINE
  5
C6D64
  8
035
 62
     3
 10
-116.248726
 20
5.661922
 30
0.0
 11
-116.7767
 21
6.189896
 31
0.0
  0
LINE
  5
C6D65
  8
035
 62
     3
 10
-115.511397
 20
4.542756
 30
0.0
 11
-115.842053
 21
4.873411
 31
0.0
  0
LINE
  5
C6D66
  8
035
 62
     3
 10
-116.630563
 20
5.661922
 30
0.0
 11
-117.158537
 21
6.189896
 31
0.0
  0
LINE
  5
C6D67
  8
035
 62
     3
 10
-115.875916
 20
4.525437
 30
0.0
 11
-116.22389
 21
4.873411
 31
0.0
  0
LINE
  5
C6D68
  8
035
 62
     3
 10
-117.012401
 20
5.661922
 30
0.0
 11
-117.540375
 21
6.189896
 31
0.0
  0
LINE
  5
C6D69
  8
035
 62
     3
 10
-115.421227
 20
3.68891
 30
0.0
 11
-115.469243
 21
3.736926
 31
0.0
  0
LINE
  5
C6D6A
  8
035
 62
     3
 10
-117.394239
 20
5.661922
 30
0.0
 11
-117.922213
 21
6.189896
 31
0.0
  0
LINE
  5
C6D6B
  8
035
 62
     3
 10
-116.257754
 20
4.525437
 30
0.0
 11
-116.605728
 21
4.873411
 31
0.0
  0
LINE
  5
C6D6C
  8
035
 62
     3
 10
-115.490517
 20
3.376362
 30
0.0
 11
-115.851081
 21
3.736926
 31
0.0
  0
LINE
  5
C6D6D
  8
035
 62
     3
 10
-117.776076
 20
5.661922
 30
0.0
 11
-118.30405
 21
6.189896
 31
0.0
  0
LINE
  5
C6D6E
  8
035
 62
     3
 10
-116.639592
 20
4.525437
 30
0.0
 11
-116.987566
 21
4.873411
 31
0.0
  0
LINE
  5
C6D6F
  8
035
 62
     3
 10
-115.704944
 20
3.208952
 30
0.0
 11
-116.232919
 21
3.736926
 31
0.0
  0
LINE
  5
C6D70
  8
035
 62
     3
 10
-118.157914
 20
5.661922
 30
0.0
 11
-118.685888
 21
6.189896
 31
0.0
  0
LINE
  5
C6D71
  8
035
 62
     3
 10
-117.021429
 20
4.525437
 30
0.0
 11
-117.369403
 21
4.873411
 31
0.0
  0
LINE
  5
C6D72
  8
035
 62
     3
 10
-116.086782
 20
3.208952
 30
0.0
 11
-116.614756
 21
3.736926
 31
0.0
  0
LINE
  5
C6D73
  8
035
 62
     3
 10
-118.526606
 20
5.648776
 30
0.0
 11
-119.067726
 21
6.189896
 31
0.0
  0
LINE
  5
C6D74
  8
035
 62
     3
 10
-117.403267
 20
4.525437
 30
0.0
 11
-117.751241
 21
4.873411
 31
0.0
  0
LINE
  5
C6D75
  8
035
 62
     3
 10
-116.46862
 20
3.208952
 30
0.0
 11
-116.996594
 21
3.736926
 31
0.0
  0
LINE
  5
C6D76
  8
035
 62
     3
 10
-118.595896
 20
5.336228
 30
0.0
 11
-119.449563
 21
6.189896
 31
0.0
  0
LINE
  5
C6D77
  8
035
 62
     3
 10
-117.785104
 20
4.525437
 30
0.0
 11
-118.133079
 21
4.873411
 31
0.0
  0
LINE
  5
C6D78
  8
035
 62
     3
 10
-116.850457
 20
3.208952
 30
0.0
 11
-117.378432
 21
3.736926
 31
0.0
  0
LINE
  5
C6D79
  8
035
 62
     3
 10
-118.665186
 20
5.023681
 30
0.0
 11
-119.831401
 21
6.189896
 31
0.0
  0
LINE
  5
C6D7A
  8
035
 62
     3
 10
-118.166942
 20
4.525437
 30
0.0
 11
-118.514916
 21
4.873411
 31
0.0
  0
LINE
  5
C6D7B
  8
035
 62
     3
 10
-117.232295
 20
3.208952
 30
0.0
 11
-117.760269
 21
3.736926
 31
0.0
  0
LINE
  5
C6D7C
  8
035
 62
     3
 10
-118.54878
 20
4.525437
 30
0.0
 11
-120.213239
 21
6.189896
 31
0.0
  0
LINE
  5
C6D7D
  8
035
 62
     3
 10
-117.614133
 20
3.208952
 30
0.0
 11
-118.142107
 21
3.736926
 31
0.0
  0
LINE
  5
C6D7E
  8
035
 62
     3
 10
-118.803766
 20
4.398586
 30
0.0
 11
-120.481271
 21
6.07609
 31
0.0
  0
LINE
  5
C6D7F
  8
035
 62
     3
 10
-117.99597
 20
3.208952
 30
0.0
 11
-118.523944
 21
3.736926
 31
0.0
  0
LINE
  5
C6D80
  8
035
 62
     3
 10
-118.873056
 20
4.086038
 30
0.0
 11
-120.550561
 21
5.763543
 31
0.0
  0
LINE
  5
C6D81
  8
035
 62
     3
 10
-118.377808
 20
3.208952
 30
0.0
 11
-118.905782
 21
3.736926
 31
0.0
  0
LINE
  5
C6D82
  8
035
 62
     3
 10
-118.942346
 20
3.773491
 30
0.0
 11
-120.619851
 21
5.450995
 31
0.0
  0
LINE
  5
C6D83
  8
035
 62
     3
 10
-118.759646
 20
3.208952
 30
0.0
 11
-120.689141
 21
5.138448
 31
0.0
  0
LINE
  5
C6D84
  8
035
 62
     3
 10
-121.527894
 20
5.9772
 30
0.0
 11
-121.740589
 21
6.189896
 31
0.0
  0
LINE
  5
C6D85
  8
035
 62
     3
 10
-119.141483
 20
3.208952
 30
0.0
 11
-120.758431
 21
4.8259
 31
0.0
  0
LINE
  5
C6D86
  8
035
 62
     3
 10
-121.597184
 20
5.664653
 30
0.0
 11
-122.122427
 21
6.189896
 31
0.0
  0
LINE
  5
C6D87
  8
035
 62
     3
 10
-119.523321
 20
3.208952
 30
0.0
 11
-120.827722
 21
4.513353
 31
0.0
  0
LINE
  5
C6D88
  8
035
 62
     3
 10
-121.666474
 20
5.352105
 30
0.0
 11
-122.504265
 21
6.189896
 31
0.0
  0
LINE
  5
C6D89
  8
035
 62
     3
 10
-119.905159
 20
3.208952
 30
0.0
 11
-120.897012
 21
4.200805
 31
0.0
  0
LINE
  5
C6D8A
  8
035
 62
     3
 10
-121.735764
 20
5.039558
 30
0.0
 11
-122.886102
 21
6.189896
 31
0.0
  0
LINE
  5
C6D8B
  8
035
 62
     3
 10
-120.286996
 20
3.208952
 30
0.0
 11
-120.966302
 21
3.888258
 31
0.0
  0
LINE
  5
C6D8C
  8
035
 62
     3
 10
-121.805054
 20
4.72701
 30
0.0
 11
-123.26794
 21
6.189896
 31
0.0
  0
LINE
  5
C6D8D
  8
035
 62
     3
 10
-120.668834
 20
3.208952
 30
0.0
 11
-121.035592
 21
3.57571
 31
0.0
  0
LINE
  5
C6D8E
  8
035
 62
     3
 10
-121.874344
 20
4.414463
 30
0.0
 11
-123.551849
 21
6.091967
 31
0.0
  0
LINE
  5
C6D8F
  8
035
 62
     3
 10
-121.050672
 20
3.208952
 30
0.0
 11
-121.104882
 21
3.263163
 31
0.0
  0
LINE
  5
C6D90
  8
035
 62
     3
 10
-121.943634
 20
4.101915
 30
0.0
 11
-123.621139
 21
5.77942
 31
0.0
  0
LINE
  5
C6D91
  8
035
 62
     3
 10
-122.012925
 20
3.789368
 30
0.0
 11
-123.690429
 21
5.466872
 31
0.0
  0
LINE
  5
C6D92
  8
035
 62
     3
 10
-122.082215
 20
3.47682
 30
0.0
 11
-123.75972
 21
5.154325
 31
0.0
  0
LINE
  5
C6D93
  8
035
 62
     3
 10
-122.196185
 20
3.208952
 30
0.0
 11
-124.000471
 21
5.013238
 31
0.0
  0
LINE
  5
C6D94
  8
035
 62
     3
 10
-122.578022
 20
3.208952
 30
0.0
 11
-125.288936
 21
5.919866
 31
0.0
  0
LINE
  5
C6D95
  8
035
 62
     3
 10
-122.95986
 20
3.208952
 30
0.0
 11
-125.940804
 21
6.189896
 31
0.0
  0
LINE
  5
C6D96
  8
035
 62
     3
 10
-123.341698
 20
3.208952
 30
0.0
 11
-126.322641
 21
6.189896
 31
0.0
  0
LINE
  5
C6D97
  8
035
 62
     3
 10
-123.723535
 20
3.208952
 30
0.0
 11
-126.704479
 21
6.189896
 31
0.0
  0
LINE
  5
C6D98
  8
035
 62
     3
 10
-124.105373
 20
3.208952
 30
0.0
 11
-127.086317
 21
6.189896
 31
0.0
  0
LINE
  5
C6D99
  8
035
 62
     3
 10
-124.637238
 20
3.358979
 30
0.0
 11
-127.468154
 21
6.189896
 31
0.0
  0
LINE
  5
C6D9A
  8
035
 62
     3
 10
-126.372797
 20
4.712701
 30
0.0
 11
-127.849992
 21
6.189896
 31
0.0
  0
LINE
  5
C6D9B
  8
035
 62
     3
 10
-126.442087
 20
4.400153
 30
0.0
 11
-128.119592
 21
6.077658
 31
0.0
  0
LINE
  5
C6D9C
  8
035
 62
     3
 10
-126.511377
 20
4.087605
 30
0.0
 11
-128.188882
 21
5.76511
 31
0.0
  0
LINE
  5
C6D9D
  8
035
 62
     3
 10
-126.580667
 20
3.775058
 30
0.0
 11
-128.258172
 21
5.452563
 31
0.0
  0
LINE
  5
C6D9E
  8
035
 62
     3
 10
-126.649957
 20
3.46251
 30
0.0
 11
-128.327462
 21
5.140015
 31
0.0
  0
LINE
  5
C6D9F
  8
035
 62
     3
 10
-126.778237
 20
3.208952
 30
0.0
 11
-128.396752
 21
4.827468
 31
0.0
  0
LINE
  5
C6DA0
  8
035
 62
     3
 10
-127.160074
 20
3.208952
 30
0.0
 11
-128.466042
 21
4.51492
 31
0.0
  0
LINE
  5
C6DA1
  8
035
 62
     3
 10
-127.541912
 20
3.208952
 30
0.0
 11
-128.535332
 21
4.202373
 31
0.0
  0
LINE
  5
C6DA2
  8
035
 62
     3
 10
-127.92375
 20
3.208952
 30
0.0
 11
-128.604622
 21
3.889825
 31
0.0
  0
LINE
  5
C6DA3
  8
035
 62
     3
 10
-128.305587
 20
3.208952
 30
0.0
 11
-128.673913
 21
3.577278
 31
0.0
  0
LINE
  5
C6DA4
  8
035
 62
     3
 10
-128.687425
 20
3.208952
 30
0.0
 11
-128.743203
 21
3.26473
 31
0.0
  0
LINE
  5
C6DA5
  8
035
 62
     3
 10
-96.231224
 20
3.208952
 30
0.0
 11
-96.940841
 21
3.91857
 31
0.0
  0
LINE
  5
C6DA6
  8
035
 62
     3
 10
-98.605972
 20
5.5837
 30
0.0
 11
-99.212167
 21
6.189896
 31
0.0
  0
LINE
  5
C6DA7
  8
035
 62
     3
 10
-97.342769
 20
4.320497
 30
0.0
 11
-97.690743
 21
4.668471
 31
0.0
  0
LINE
  5
C6DA8
  8
035
 62
     3
 10
-95.849386
 20
3.208952
 30
0.0
 11
-97.308905
 21
4.668471
 31
0.0
  0
LINE
  5
C6DA9
  8
035
 62
     3
 10
-98.302356
 20
5.661922
 30
0.0
 11
-98.83033
 21
6.189896
 31
0.0
  0
LINE
  5
C6DAA
  8
035
 62
     3
 10
-95.467548
 20
3.208952
 30
0.0
 11
-96.984586
 21
4.725989
 31
0.0
  0
LINE
  5
C6DAB
  8
035
 62
     3
 10
-97.920518
 20
5.661922
 30
0.0
 11
-98.448492
 21
6.189896
 31
0.0
  0
LINE
  5
C6DAC
  8
035
 62
     3
 10
-95.085711
 20
3.208952
 30
0.0
 11
-96.740958
 21
4.864199
 31
0.0
  0
LINE
  5
C6DAD
  8
035
 62
     3
 10
-97.53868
 20
5.661922
 30
0.0
 11
-98.066654
 21
6.189896
 31
0.0
  0
LINE
  5
C6DAE
  8
035
 62
     3
 10
-94.914729
 20
3.419808
 30
0.0
 11
-96.575215
 21
5.080294
 31
0.0
  0
LINE
  5
C6DAF
  8
035
 62
     3
 10
-97.156843
 20
5.661922
 30
0.0
 11
-97.684817
 21
6.189896
 31
0.0
  0
LINE
  5
C6DB0
  8
035
 62
     3
 10
-94.900069
 20
3.786986
 30
0.0
 11
-96.59083
 21
5.477747
 31
0.0
  0
LINE
  5
C6DB1
  8
035
 62
     3
 10
-96.738497
 20
5.625413
 30
0.0
 11
-97.302979
 21
6.189896
 31
0.0
  0
LINE
  5
C6DB2
  8
035
 62
     3
 10
-94.875113
 20
4.143868
 30
0.0
 11
-96.921141
 21
6.189896
 31
0.0
  0
LINE
  5
C6DB3
  8
035
 62
     3
 10
-93.55836
 20
3.208952
 30
0.0
 11
-93.850928
 21
3.501521
 31
0.0
  0
LINE
  5
C6DB4
  8
035
 62
     3
 10
-94.944497
 20
4.595089
 30
0.0
 11
-96.539304
 21
6.189896
 31
0.0
  0
LINE
  5
C6DB5
  8
035
 62
     3
 10
-93.176522
 20
3.208952
 30
0.0
 11
-93.781638
 21
3.814068
 31
0.0
  0
LINE
  5
C6DB6
  8
035
 62
     3
 10
-94.710395
 20
4.742825
 30
0.0
 11
-96.157466
 21
6.189896
 31
0.0
  0
LINE
  5
C6DB7
  8
035
 62
     3
 10
-92.794685
 20
3.208952
 30
0.0
 11
-93.712348
 21
4.126616
 31
0.0
  0
LINE
  5
C6DB8
  8
035
 62
     3
 10
-94.508092
 20
4.922359
 30
0.0
 11
-95.775628
 21
6.189896
 31
0.0
  0
LINE
  5
C6DB9
  8
035
 62
     3
 10
-92.412847
 20
3.208952
 30
0.0
 11
-93.643058
 21
4.439163
 31
0.0
  0
LINE
  5
C6DBA
  8
035
 62
     3
 10
-94.34602
 20
5.142126
 30
0.0
 11
-95.393791
 21
6.189896
 31
0.0
  0
LINE
  5
C6DBB
  8
035
 62
     3
 10
-92.031009
 20
3.208952
 30
0.0
 11
-93.573768
 21
4.751711
 31
0.0
  0
LINE
  5
C6DBC
  8
035
 62
     3
 10
-94.243352
 20
5.421295
 30
0.0
 11
-94.981922
 21
6.159864
 31
0.0
  0
LINE
  5
C6DBD
  8
035
 62
     3
 10
-91.826973
 20
3.386753
 30
0.0
 11
-93.504478
 21
5.064258
 31
0.0
  0
LINE
  5
C6DBE
  8
035
 62
     3
 10
-91.757683
 20
3.699301
 30
0.0
 11
-93.435188
 21
5.376806
 31
0.0
  0
LINE
  5
C6DBF
  8
035
 62
     3
 10
-91.688393
 20
4.011849
 30
0.0
 11
-93.365898
 21
5.689353
 31
0.0
  0
LINE
  5
C6DC0
  8
035
 62
     3
 10
-90.503659
 20
3.208952
 30
0.0
 11
-90.62785
 21
3.333143
 31
0.0
  0
LINE
  5
C6DC1
  8
035
 62
     3
 10
-91.619103
 20
4.324396
 30
0.0
 11
-93.296607
 21
6.001901
 31
0.0
  0
LINE
  5
C6DC2
  8
035
 62
     3
 10
-90.121821
 20
3.208952
 30
0.0
 11
-90.55856
 21
3.645691
 31
0.0
  0
LINE
  5
C6DC3
  8
035
 62
     3
 10
-91.549812
 20
4.636944
 30
0.0
 11
-93.102765
 21
6.189896
 31
0.0
  0
LINE
  5
C6DC4
  8
035
 62
     3
 10
-89.739983
 20
3.208952
 30
0.0
 11
-90.489269
 21
3.958238
 31
0.0
  0
LINE
  5
C6DC5
  8
035
 62
     3
 10
-91.480522
 20
4.949491
 30
0.0
 11
-92.720927
 21
6.189896
 31
0.0
  0
LINE
  5
C6DC6
  8
035
 62
     3
 10
-89.358146
 20
3.208952
 30
0.0
 11
-90.419979
 21
4.270786
 31
0.0
  0
LINE
  5
C6DC7
  8
035
 62
     3
 10
-91.411232
 20
5.262039
 30
0.0
 11
-92.339089
 21
6.189896
 31
0.0
  0
LINE
  5
C6DC8
  8
035
 62
     3
 10
-88.976308
 20
3.208952
 30
0.0
 11
-90.350689
 21
4.583333
 31
0.0
  0
LINE
  5
C6DC9
  8
035
 62
     3
 10
-91.341942
 20
5.574586
 30
0.0
 11
-91.957252
 21
6.189896
 31
0.0
  0
LINE
  5
C6DCA
  8
035
 62
     3
 10
-88.680144
 20
3.294626
 30
0.0
 11
-90.281399
 21
4.895881
 31
0.0
  0
LINE
  5
C6DCB
  8
035
 62
     3
 10
-91.272652
 20
5.887134
 30
0.0
 11
-91.575414
 21
6.189896
 31
0.0
  0
LINE
  5
C6DCC
  8
035
 62
     3
 10
-88.610854
 20
3.607174
 30
0.0
 11
-90.212109
 21
5.208428
 31
0.0
  0
LINE
  5
C6DCD
  8
035
 62
     3
 10
-88.541564
 20
3.919721
 30
0.0
 11
-90.142819
 21
5.520976
 31
0.0
  0
LINE
  5
C6DCE
  8
035
 62
     3
 10
-88.295705
 20
4.0557
 30
0.0
 11
-90.073529
 21
5.833524
 31
0.0
  0
LINE
  5
C6DCF
  8
035
 62
     3
 10
-88.027962
 20
4.169794
 30
0.0
 11
-90.004239
 21
6.146071
 31
0.0
  0
LINE
  5
C6DD0
  8
035
 62
     3
 10
-87.760218
 20
4.283888
 30
0.0
 11
-89.666226
 21
6.189896
 31
0.0
  0
LINE
  5
C6DD1
  8
035
 62
     3
 10
-86.303444
 20
3.208952
 30
0.0
 11
-89.284388
 21
6.189896
 31
0.0
  0
LINE
  5
C6DD2
  8
035
 62
     3
 10
-85.921607
 20
3.208952
 30
0.0
 11
-88.004104
 21
5.29145
 31
0.0
  0
LINE
  5
C6DD3
  8
035
 62
     3
 10
-88.195114
 20
5.482459
 30
0.0
 11
-88.90255
 21
6.189896
 31
0.0
  0
LINE
  5
C6DD4
  8
035
 62
     3
 10
-85.539769
 20
3.208952
 30
0.0
 11
-87.736361
 21
5.405544
 31
0.0
  0
LINE
  5
C6DD5
  8
035
 62
     3
 10
-88.125823
 20
5.795007
 30
0.0
 11
-88.520713
 21
6.189896
 31
0.0
  0
LINE
  5
C6DD6
  8
035
 62
     3
 10
-85.157931
 20
3.208952
 30
0.0
 11
-87.468617
 21
5.519638
 31
0.0
  0
LINE
  5
C6DD7
  8
035
 62
     3
 10
-88.056533
 20
6.107554
 30
0.0
 11
-88.138875
 21
6.189896
 31
0.0
  0
LINE
  5
C6DD8
  8
035
 62
     3
 10
-84.776094
 20
3.208952
 30
0.0
 11
-87.200873
 21
5.633732
 31
0.0
  0
LINE
  5
C6DD9
  8
035
 62
     3
 10
-84.394256
 20
3.208952
 30
0.0
 11
-86.933129
 21
5.747826
 31
0.0
  0
LINE
  5
C6DDA
  8
035
 62
     3
 10
-84.012418
 20
3.208952
 30
0.0
 11
-86.665386
 21
5.86192
 31
0.0
  0
LINE
  5
C6DDB
  8
035
 62
     3
 10
-85.618268
 20
5.19664
 30
0.0
 11
-86.397642
 21
5.976013
 31
0.0
  0
LINE
  5
C6DDC
  8
035
 62
     3
 10
-85.350525
 20
5.310734
 30
0.0
 11
-86.129898
 21
6.090107
 31
0.0
  0
LINE
  5
C6DDD
  8
035
 62
     3
 10
-85.082781
 20
5.424828
 30
0.0
 11
-85.847849
 21
6.189896
 31
0.0
  0
LINE
  5
C6DDE
  8
035
 62
     3
 10
-84.815037
 20
5.538922
 30
0.0
 11
-85.466011
 21
6.189896
 31
0.0
  0
LINE
  5
C6DDF
  8
035
 62
     3
 10
-84.547294
 20
5.653016
 30
0.0
 11
-85.084174
 21
6.189896
 31
0.0
  0
LINE
  5
C6DE0
  8
035
 62
     3
 10
-84.27955
 20
5.76711
 30
0.0
 11
-84.702336
 21
6.189896
 31
0.0
  0
LINE
  5
C6DE1
  8
035
 62
     3
 10
-84.011806
 20
5.881204
 30
0.0
 11
-84.320498
 21
6.189896
 31
0.0
  0
LINE
  5
C6DE2
  8
035
 62
     3
 10
-83.744063
 20
5.995298
 30
0.0
 11
-83.938661
 21
6.189896
 31
0.0
  0
LINE
  5
C6DE3
  8
035
 62
     3
 10
-83.476319
 20
6.109392
 30
0.0
 11
-83.556823
 21
6.189896
 31
0.0
  0
ENDBLK
  5
C6DE5
  8
0
  0
BLOCK
  8
0
  2
ZKOPF-REAN
 70
     2
 10
0.0
 20
0.0
 30
0.0
  3
ZKOPF-REAN
  1

  0
TEXT
  5
C9339
  8
035
 10
517.653158
 20
512.84859
 30
0.0
 40
3.5
  1
  
 41
0.7
 51
15.0
  0
TEXT
  5
C933A
  8
035
 10
517.653158
 20
512.84859
 30
0.0
 40
3.5
  1
  
 41
0.7
 51
15.0
  0
TEXT
  5
C933B
  8
035
 10
517.653158
 20
512.84859
 30
0.0
 40
3.5
  1
  
 41
0.7
 51
15.0
  0
TEXT
  5
C933C
  8
035
 10
517.653158
 20
512.84859
 30
0.0
 40
3.5
  1
  
 41
0.7
 51
15.0
  0
TEXT
  5
C933D
  8
035
 10
517.653158
 20
512.84859
 30
0.0
 40
3.5
  1
  
 41
0.7
 51
15.0
  0
TEXT
  5
C933E
  8
035
 10
517.653158
 20
512.84859
 30
0.0
 40
3.5
  1
  
 41
0.7
 51
15.0
  0
TEXT
  5
C933F
  8
035
 10
517.653158
 20
512.84859
 30
0.0
 40
3.5
  1
  
 41
0.7
 51
15.0
  0
TEXT
  5
C9340
  8
035
 10
517.653158
 20
512.84859
 30
0.0
 40
3.5
  1
  
 41
0.7
 51
15.0
  0
TEXT
  5
C9341
  8
035
 10
517.653158
 20
512.84859
 30
0.0
 40
3.5
  1
  
 41
0.7
 51
15.0
  0
TEXT
  5
C9342
  8
035
 10
517.653158
 20
512.84859
 30
0.0
 40
3.5
  1
  
 41
0.7
 51
15.0
  0
TEXT
  5
C9343
  8
035
 10
517.653158
 20
512.84859
 30
0.0
 40
3.5
  1
  
 41
0.7
 51
15.0
  0
TEXT
  5
C9344
  8
035
 10
517.653158
 20
512.84859
 30
0.0
 40
3.5
  1
  
 41
0.7
 51
15.0
  0
ATTDEF
  5
C9345
  8
0
 62
     4
 10
-15.166667
 20
37.0
 30
0.0
 40
2.5
  1
Battlogg
  7
SCRIPTS
 72
     1
 11
-8.5
 21
37.0
 31
0.0
  3
Name des Konstrukteurs ?
  2
NAME
 70
     0
  0
POLYLINE
  5
C9346
  8
0
 62
     2
 66
     1
 10
0.0
 20
0.0
 30
0.0
  0
VERTEX
  5
C953D
  8
0
 62
     2
 10
-51.0
 20
0.0
 30
0.0
  0
VERTEX
  5
C953E
  8
0
 62
     2
 10
-51.0
 20
46.0
 30
0.0
  0
SEQEND
  5
C953F
  8
0
 62
     2
  0
POLYLINE
  5
C9347
  8
0
 62
     2
 66
     1
 10
0.0
 20
0.0
 30
0.0
  0
VERTEX
  5
C9540
  8
0
 62
     2
 10
-17.0
 20
9.0
 30
0.0
  0
VERTEX
  5
C9541
  8
0
 62
     2
 10
-17.0
 20
46.0
 30
0.0
  0
SEQEND
  5
C9542
  8
0
 62
     2
  0
POLYLINE
  5
C9348
  8
0
 62
     2
 66
     1
 10
0.0
 20
0.0
 30
0.0
  0
VERTEX
  5
C9543
  8
0
 62
     2
 10
-32.0
 20
26.0
 30
0.0
  0
VERTEX
  5
C9544
  8
0
 62
     2
 10
-32.0
 20
46.0
 30
0.0
  0
SEQEND
  5
C9545
  8
0
 62
     2
  0
POLYLINE
  5
C9349
  8
0
 62
     2
 66
     1
 10
0.0
 20
0.0
 30
0.0
  0
VERTEX
  5
C9546
  8
0
 62
     2
 10
-133.0
 20
41.0
 30
0.0
  0
VERTEX
  5
C9547
  8
0
 62
     2
 10
-92.0
 20
41.0
 30
0.0
  0
SEQEND
  5
C9548
  8
0
 62
     2
  0
POLYLINE
  5
C934A
  8
0
 62
     2
 66
     1
 10
0.0
 20
0.0
 30
0.0
  0
VERTEX
  5
C9549
  8
0
 62
     2
 10
-145.0
 20
0.0
 30
0.0
  0
VERTEX
  5
C954A
  8
0
 62
     2
 10
-145.0
 20
46.0
 30
0.0
  0
SEQEND
  5
C954B
  8
0
 62
     2
  0
POLYLINE
  5
C934B
  8
0
 62
     2
 66
     1
 10
0.0
 20
0.0
 30
0.0
  0
VERTEX
  5
C954C
  8
0
 62
     2
 10
-158.0
 20
0.0
 30
0.0
  0
VERTEX
  5
C954D
  8
0
 62
     2
 10
-158.0
 20
46.0
 30
0.0
  0
SEQEND
  5
C954E
  8
0
 62
     2
  0
LINE
  5
C934C
  8
0
 62
     2
 10
-200.0
 20
6.0
 30
0.0
 11
-133.0
 21
6.0
 31
0.0
  0
POLYLINE
  5
C934D
  8
0
 62
     4
 66
     1
 10
0.0
 20
0.0
 30
0.0
  0
VERTEX
  5
C954F
  8
0
 62
     4
 10
-200.0
 20
11.0
 30
0.0
  0
VERTEX
  5
C9550
  8
0
 62
     4
 10
-133.0
 20
11.0
 30
0.0
  0
SEQEND
  5
C9551
  8
0
 62
     4
  0
POLYLINE
  5
C934E
  8
0
 62
     4
 66
     1
 10
0.0
 20
0.0
 30
0.0
  0
VERTEX
  5
C9552
  8
0
 62
     4
 10
-200.0
 20
16.0
 30
0.0
  0
VERTEX
  5
C9553
  8
0
 62
     4
 10
-133.0
 20
16.0
 30
0.0
  0
SEQEND
  5
C9554
  8
0
 62
     4
  0
POLYLINE
  5
C934F
  8
0
 62
     4
 66
     1
 10
0.0
 20
0.0
 30
0.0
  0
VERTEX
  5
C9555
  8
0
 62
     4
 10
-200.0
 20
21.0
 30
0.0
  0
VERTEX
  5
C9556
  8
0
 62
     4
 10
-133.0
 20
21.0
 30
0.0
  0
SEQEND
  5
C9557
  8
0
 62
     4
  0
POLYLINE
  5
C9350
  8
0
 62
     4
 66
     1
 10
0.0
 20
0.0
 30
0.0
  0
VERTEX
  5
C9558
  8
0
 62
     4
 10
-200.0
 20
26.0
 30
0.0
  0
VERTEX
  5
C9559
  8
0
 62
     4
 10
-133.0
 20
26.0
 30
0.0
  0
SEQEND
  5
C955A
  8
0
 62
     4
  0
POLYLINE
  5
C9351
  8
0
 62
     4
 66
     1
 10
0.0
 20
0.0
 30
0.0
  0
VERTEX
  5
C955B
  8
0
 62
     4
 10
-200.0
 20
31.0
 30
0.0
  0
VERTEX
  5
C955C
  8
0
 62
     4
 10
-133.0
 20
31.0
 30
0.0
  0
SEQEND
  5
C955D
  8
0
 62
     4
  0
POLYLINE
  5
C9352
  8
0
 62
     4
 66
     1
 10
0.0
 20
0.0
 30
0.0
  0
VERTEX
  5
C955E
  8
0
 62
     4
 10
-200.0
 20
36.0
 30
0.0
  0
VERTEX
  5
C955F
  8
0
 62
     4
 10
-133.0
 20
36.0
 30
0.0
  0
SEQEND
  5
C9560
  8
0
 62
     4
  0
POLYLINE
  5
C9353
  8
0
 62
     4
 66
     1
 10
0.0
 20
0.0
 30
0.0
  0
VERTEX
  5
C9561
  8
0
 62
     4
 10
-200.0
 20
41.0
 30
0.0
  0
VERTEX
  5
C9562
  8
0
 62
     4
 10
-133.0
 20
41.0
 30
0.0
  0
SEQEND
  5
C9563
  8
0
 62
     4
  0
TEXT
  5
C9354
  8
0
 62
     4
 10
-50.0
 20
6.0
 30
0.0
 40
1.5
  1
Zeichn. Nr.
 51
15.0
  0
TEXT
  5
C9355
  8
0
 62
     4
 10
-50.0
 20
23.0
 30
0.0
 40
1.5
  1
Ersetzt durch:         Blatt
 51
15.0
  0
TEXT
  5
C9356
  8
0
 62
     4
 10
-50.0
 20
38.0
 30
0.0
 40
1.5
  1
Gezeichnet
 51
15.0
  0
TEXT
  5
C9357
  8
0
 62
     4
 10
-50.0
 20
27.0
 30
0.0
 40
1.5
  1
Gesehen
 51
15.0
  0
TEXT
  5
C9358
  8
0
 62
     4
 10
-31.0
 20
42.0
 30
0.0
 40
1.5
  1
Datum     Name
 51
15.0
  0
TEXT
  5
C9359
  8
0
 62
     4
 10
-91.0
 20
42.0
 30
0.0
 40
1.5
  1
Werkstoff:      Massstab:
 51
15.0
  0
TEXT
  5
C935A
  8
0
 62
     4
 10
-132.0
 20
23.0
 30
0.0
 40
1.5
  1
Benennung:
 51
15.0
  0
LINE
  5
C935B
  8
0
 62
     2
 10
-133.0
 20
33.0
 30
0.0
 11
-92.0
 21
33.0
 31
0.0
  0
TEXT
  5
C935C
  8
0
 62
     4
 10
-132.0
 20
39.0
 30
0.0
 40
1.5
  1
*)Lieferant darf ohne 
 51
15.0
  0
TEXT
  5
C935D
  8
0
 62
     4
 10
-132.0
 20
36.5
 30
0.0
 40
1.5
  1
 Ruecksprache nicht 
 51
15.0
  0
TEXT
  5
C935E
  8
0
 62
     4
 10
-132.0
 20
34.0
 30
0.0
 40
1.5
  1
 geaendert werden
 51
15.0
  0
TEXT
  5
C935F
  8
0
 62
     4
 10
-132.0
 20
30.0
 30
0.0
 40
1.5
  1
Zeichnung urheberrechtlich
 51
15.0
  0
TEXT
  5
C9360
  8
0
 62
     4
 10
-132.0
 20
27.5
 30
0.0
 40
1.5
  1
geschuetzt (DIN 34) (C)
 51
15.0
  0
TEXT
  5
C9361
  8
0
 62
     4
 10
-50.0
 20
32.0
 30
0.0
 40
1.5
  1
Geprueft
 51
15.0
  0
TEXT
  5
C9362
  8
0
 62
     4
 10
-50.0
 20
15.0
 30
0.0
 40
1.5
  1
Ersatz fuer:           von  Blatt
 51
15.0
  0
TEXT
  5
C9363
  8
0
 62
     4
 10
-197.0
 20
1.0
 30
0.0
 40
1.5
  1
Ind.  Aenderung             Datum    Name
 51
15.0
  0
ATTDEF
  5
C9364
  8
0
 62
     4
 10
-30.770833
 20
37.0
 30
0.0
 40
2.5
  1
03.11.2004
 41
0.7
 51
15.0
 72
     1
 11
-24.5
 21
37.0
 31
0.0
  3
Datum der Zeichnung ?
  2
DATE
 70
     0
  0
ATTDEF
  5
C9365
  8
0
 62
     4
 10
-80.5
 20
36.0
 30
0.0
 40
2.5
  1

 41
0.7
 51
15.0
 72
     1
 11
-80.5
 21
36.0
 31
0.0
  3
Aus welchem Werkstoff ?
  2
WERKSTOFF
 70
     0
  0
ATTDEF
  5
C9366
  8
0
 62
     2
 10
-92.0
 20
12.5
 30
0.0
 40
5.0
  1

 41
0.7
 51
15.0
 72
     1
 11
-92.0
 21
12.5
 31
0.0
  3
Zeichnungsname ?
  2
BENENNUNG
 70
     0
  0
ATTDEF
  5
C9367
  8
0
 62
     3
 10
-90.265457
 20
21.082191
 30
0.0
 40
3.5
  1
()
 41
0.7
 51
15.0
 72
     1
 11
-89.040457
 21
21.082191
 31
0.0
  3
Zu welchem Produkt ?
  2
TEIL
 70
     0
  0
ATTDEF
  5
C9368
  8
0
 62
     3
 10
-20.550219
 20
1.976541
 30
0.0
 40
3.5
  1

 41
0.7
 51
15.0
 72
     1
 11
-20.550219
 21
1.976541
 31
0.0
  3
Zeichnungsnummer ?
  2
NUMMER
 70
     0
  0
ATTDEF
  5
C9369
  8
0
 62
     2
 10
-62.899338
 20
34.656056
 30
0.0
 40
5.0
  1
1:1
 41
0.7
 51
15.0
 72
     1
 11
-60.566005
 21
34.656056
 31
0.0
  3
Hauptmassstab:
  2
MASS
 70
     0
  0
ATTDEF
  5
C936A
  8
0
 62
     3
 10
-60.480701
 20
28.210451
 30
0.0
 40
3.5
  1

 41
0.7
 51
15.0
 72
     1
 11
-60.480701
 21
28.210451
 31
0.0
  3
Nebenmassstab:
  2
MASS2
 70
     0
  0
ATTDEF
  5
C936B
  8
0
 62
     4
 10
-81.0
 20
29.0
 30
0.0
 40
2.5
  1

 41
0.7
 51
15.0
 72
     1
 11
-81.0
 21
29.0
 31
0.0
  3
Werkstoffzusatz:
  2
TEIL
 70
     0
  0
ATTDEF
  5
C936C
  8
0
 62
     3
 10
-107.711452
 20
59.004319
 30
0.0
 40
3.5
  1
Freimasstoleranzen %%p0.1
 41
0.7
 51
15.0
  3
Freimasstoleranzen:
  2
TOL
 70
     0
  0
ATTDEF
  5
C936D
  8
0
 62
     3
 10
-107.711452
 20
54.004319
 30
0.0
 40
3.5
  1
nicht bemasste Radien R=0.2
 41
0.7
 51
15.0
  3
Nicht bemasste Radien:
  2
RADIEN
 70
     0
  0
ATTDEF
  5
C936E
  8
0
 62
     3
 10
-107.711452
 20
49.004319
 30
0.0
 40
3.5
  1
nicht bemasste Facetten 0.5 x 45%%D
 41
0.7
 51
15.0
  3
nicht bemasste Facetten:
  2
FACETTE
 70
     0
  0
POLYLINE
  5
C936F
  8
0
 62
     2
 66
     1
 10
0.0
 20
0.0
 30
0.0
  0
VERTEX
  5
C9564
  8
0
 62
     2
 10
-191.0
 20
0.0
 30
0.0
  0
VERTEX
  5
C9565
  8
0
 62
     2
 10
-191.0
 20
46.0
 30
0.0
  0
SEQEND
  5
C9566
  8
0
 62
     2
  0
POLYLINE
  5
C9370
  8
0
 62
     2
 66
     1
 10
0.0
 20
0.0
 30
0.0
  0
VERTEX
  5
C9567
  8
0
 62
     2
 10
-133.0
 20
0.0
 30
0.0
  0
VERTEX
  5
C9568
  8
0
 62
     2
 10
-133.0
 20
46.0
 30
0.0
  0
SEQEND
  5
C9569
  8
0
 62
     2
  0
POLYLINE
  5
C9371
  8
0
 62
     2
 66
     1
 10
0.0
 20
0.0
 30
0.0
  0
VERTEX
  5
C956A
  8
0
 62
     2
 10
-92.0
 20
26.0
 30
0.0
  0
VERTEX
  5
C956B
  8
0
 62
     2
 10
-92.0
 20
46.0
 30
0.0
  0
SEQEND
  5
C956C
  8
0
 62
     2
  0
POLYLINE
  5
C9372
  8
0
 62
     2
 66
     1
 10
0.0
 20
0.0
 30
0.0
  0
VERTEX
  5
C956D
  8
0
 62
     2
 10
-69.0
 20
26.0
 30
0.0
  0
VERTEX
  5
C956E
  8
0
 62
     2
 10
-69.0
 20
46.0
 30
0.0
  0
SEQEND
  5
C956F
  8
0
 62
     2
  0
ATTDEF
  5
C9373
  8
0
 62
     4
 10
-197.186267
 20
7.0
 30
0.0
 40
2.5
  1

 41
0.7
 51
15.0
  3
Index1:
  2
INDEX1
 70
     0
  0
ATTDEF
  5
C9374
  8
0
 62
     4
 10
-190.348743
 20
7.0
 30
0.0
 40
2.5
  1

 41
0.7
 51
15.0
  3
Aenderung1:
  2
A1
 70
     0
  0
ATTDEF
  5
C9375
  8
0
 62
     4
 10
-157.348743
 20
7.0
 30
0.0
 40
2.5
  1

 41
0.7
 51
15.0
  3
Datum1:
  2
DATUM1
 70
     0
  0
ATTDEF
  5
C9376
  8
0
 62
     4
 10
-144.46499
 20
7.0
 30
0.0
 40
2.5
  1

 41
0.7
 51
15.0
  3
Name1:
  2
NAME1
 70
     0
  0
ATTDEF
  5
C9377
  8
0
 62
     4
 10
-197.186267
 20
12.0
 30
0.0
 40
2.5
  1

 41
0.7
 51
15.0
  3
Index2:
  2
INDEX2
 70
     0
  0
ATTDEF
  5
C9378
  8
0
 62
     4
 10
-190.348743
 20
12.0
 30
0.0
 40
2.5
  1

 41
0.7
 51
15.0
  3
Aenderung2:
  2
A2
 70
     0
  0
ATTDEF
  5
C9379
  8
0
 62
     4
 10
-157.348743
 20
12.0
 30
0.0
 40
2.5
  1

 41
0.7
 51
15.0
  3
Datum2:
  2
DATUM2
 70
     0
  0
ATTDEF
  5
C937A
  8
0
 62
     4
 10
-144.46499
 20
12.0
 30
0.0
 40
2.5
  1

 41
0.7
 51
15.0
  3
Name2
  2
NAME2
 70
     0
  0
ATTDEF
  5
C937B
  8
0
 62
     4
 10
-197.186267
 20
17.0
 30
0.0
 40
2.5
  1

 41
0.7
 51
15.0
  3
Index3:
  2
INDEX3
 70
     0
  0
ATTDEF
  5
C937C
  8
0
 62
     4
 10
-190.348743
 20
17.0
 30
0.0
 40
2.5
  1

 41
0.7
 51
15.0
  3
Aenderung3
  2
A3
 70
     0
  0
ATTDEF
  5
C937D
  8
0
 62
     4
 10
-157.348743
 20
17.0
 30
0.0
 40
2.5
  1

 41
0.7
 51
15.0
  3
Datum3:
  2
DATUM3
 70
     0
  0
ATTDEF
  5
C937E
  8
0
 62
     4
 10
-144.46499
 20
17.0
 30
0.0
 40
2.5
  1

 41
0.7
 51
15.0
  3
Name3:
  2
NAME3
 70
     0
  0
ATTDEF
  5
C937F
  8
0
 62
     4
 10
-197.186267
 20
22.0
 30
0.0
 40
2.5
  1

 41
0.7
 51
15.0
  3
Index4:
  2
INDEX4
 70
     0
  0
ATTDEF
  5
C9380
  8
0
 62
     4
 10
-190.348743
 20
22.0
 30
0.0
 40
2.5
  1

 41
0.7
 51
15.0
  3
Aenderung4:
  2
A4
 70
     0
  0
ATTDEF
  5
C9381
  8
0
 62
     4
 10
-157.348743
 20
22.0
 30
0.0
 40
2.5
  1

 41
0.7
 51
15.0
  3
Datum4:
  2
DATUM4
 70
     0
  0
ATTDEF
  5
C9382
  8
0
 62
     4
 10
-144.46499
 20
22.0
 30
0.0
 40
2.5
  1

 41
0.7
 51
15.0
  3
Name4:
  2
NAME4
 70
     0
  0
ATTDEF
  5
C9383
  8
0
 62
     4
 10
-197.186267
 20
27.0
 30
0.0
 40
2.5
  1

 41
0.7
 51
15.0
  3
Index5:
  2
INDEX5
 70
     0
  0
ATTDEF
  5
C9384
  8
0
 62
     4
 10
-190.348743
 20
27.0
 30
0.0
 40
2.5
  1

 41
0.7
 51
15.0
  3
Aenderung5:
  2
A5
 70
     0
  0
ATTDEF
  5
C9385
  8
0
 62
     4
 10
-157.348743
 20
27.0
 30
0.0
 40
2.5
  1

 41
0.7
 51
15.0
  3
Datum5:
  2
DATUM5
 70
     0
  0
ATTDEF
  5
C9386
  8
0
 62
     4
 10
-144.46499
 20
27.0
 30
0.0
 40
2.5
  1

 41
0.7
 51
15.0
  3
Name5
  2
NAME5
 70
     0
  0
ATTDEF
  5
C9387
  8
0
 62
     4
 10
-197.186267
 20
32.0
 30
0.0
 40
2.5
  1

 41
0.7
 51
15.0
  3
Index6:
  2
INDEX6
 70
     0
  0
ATTDEF
  5
C9388
  8
0
 62
     4
 10
-190.348743
 20
32.0
 30
0.0
 40
2.5
  1

 41
0.7
 51
15.0
  3
Aenderung6:
  2
A6
 70
     0
  0
ATTDEF
  5
C9389
  8
0
 62
     4
 10
-157.348743
 20
32.0
 30
0.0
 40
2.5
  1

 41
0.7
 51
15.0
  3
Datum6:
  2
DATUM6
 70
     0
  0
ATTDEF
  5
C938A
  8
0
 62
     4
 10
-144.46499
 20
32.0
 30
0.0
 40
2.5
  1

 41
0.7
 51
15.0
  3
Name6:
  2
NAME6
 70
     0
  0
ATTDEF
  5
C938B
  8
0
 62
     4
 10
-197.186267
 20
37.0
 30
0.0
 40
2.5
  1

 41
0.7
 51
15.0
  3
Index7:
  2
INDEX7
 70
     0
  0
ATTDEF
  5
C938C
  8
0
 62
     4
 10
-190.348743
 20
37.0
 30
0.0
 40
2.5
  1

 41
0.7
 51
15.0
  3
Aenderung7:
  2
A7
 70
     0
  0
ATTDEF
  5
C938D
  8
0
 62
     4
 10
-157.348743
 20
37.0
 30
0.0
 40
2.5
  1

 41
0.7
 51
15.0
  3
Datum7:
  2
DATUM7
 70
     0
  0
ATTDEF
  5
C938E
  8
0
 62
     4
 10
-144.46499
 20
37.0
 30
0.0
 40
2.5
  1

 41
0.7
 51
15.0
  3
Name7:
  2
NAME7
 70
     0
  0
ATTDEF
  5
C938F
  8
0
 62
     4
 10
-197.186267
 20
42.0
 30
0.0
 40
2.5
  1

 41
0.7
 51
15.0
  3
Index8:
  2
INDEX8
 70
     0
  0
ATTDEF
  5
C9390
  8
0
 62
     4
 10
-190.348743
 20
42.0
 30
0.0
 40
2.5
  1

 41
0.7
 51
15.0
  3
Aenderung8:
  2
A8
 70
     0
  0
ATTDEF
  5
C9391
  8
0
 62
     4
 10
-157.348743
 20
42.0
 30
0.0
 40
2.5
  1

 41
0.7
 51
15.0
  3
Datum8:
  2
DATUM8
 70
     0
  0
ATTDEF
  5
C9392
  8
0
 62
     4
 10
-144.46499
 20
42.0
 30
0.0
 40
2.5
  1

 41
0.7
 51
15.0
  3
Name8:
  2
NAME8
 70
     0
  0
POLYLINE
  5
C9393
  8
0
 62
     2
 66
     1
 10
0.0
 20
0.0
 30
0.0
  0
VERTEX
  5
C9570
  8
0
 62
     2
 10
0.0
 20
0.0
 30
0.0
  0
VERTEX
  5
C9571
  8
0
 62
     2
 10
0.0
 20
46.0
 30
0.0
  0
SEQEND
  5
C9572
  8
0
 62
     2
  0
POLYLINE
  5
C9394
  8
0
 62
     2
 66
     1
 10
0.0
 20
0.0
 30
0.0
  0
VERTEX
  5
C9573
  8
0
 62
     2
 10
-200.0
 20
46.0
 30
0.0
  0
VERTEX
  5
C9574
  8
0
 62
     2
 10
-200.0
 20
0.0
 30
0.0
  0
SEQEND
  5
C9575
  8
0
 62
     2
  0
POLYLINE
  5
C9395
  8
0
 62
     2
 66
     1
 10
0.0
 20
0.0
 30
0.0
  0
VERTEX
  5
C9576
  8
0
 62
     2
 10
0.0
 20
9.0
 30
0.0
  0
VERTEX
  5
C9577
  8
0
 62
     2
 10
-133.0
 20
9.0
 30
0.0
  0
SEQEND
  5
C9578
  8
0
 62
     2
  0
POLYLINE
  5
C9396
  8
0
 62
     2
 66
     1
 10
0.0
 20
0.0
 30
0.0
  0
VERTEX
  5
C9579
  8
0
 62
     2
 10
0.0
 20
18.0
 30
0.0
  0
VERTEX
  5
C957A
  8
0
 62
     2
 10
-51.0
 20
18.0
 30
0.0
  0
SEQEND
  5
C957B
  8
0
 62
     2
  0
POLYLINE
  5
C9397
  8
0
 62
     2
 66
     1
 10
0.0
 20
0.0
 30
0.0
  0
VERTEX
  5
C957C
  8
0
 62
     2
 10
0.0
 20
26.0
 30
0.0
  0
VERTEX
  5
C957D
  8
0
 62
     2
 10
-133.0
 20
26.0
 30
0.0
  0
SEQEND
  5
C957E
  8
0
 62
     2
  0
POLYLINE
  5
C9398
  8
0
 62
     2
 66
     1
 10
0.0
 20
0.0
 30
0.0
  0
VERTEX
  5
C957F
  8
0
 62
     2
 10
0.0
 20
31.0
 30
0.0
  0
VERTEX
  5
C9580
  8
0
 62
     2
 10
-51.0
 20
31.0
 30
0.0
  0
SEQEND
  5
C9581
  8
0
 62
     2
  0
POLYLINE
  5
C9399
  8
0
 62
     2
 66
     1
 10
0.0
 20
0.0
 30
0.0
  0
VERTEX
  5
C9582
  8
0
 62
     2
 10
0.0
 20
36.0
 30
0.0
  0
VERTEX
  5
C9583
  8
0
 62
     2
 10
-51.0
 20
36.0
 30
0.0
  0
SEQEND
  5
C9584
  8
0
 62
     2
  0
POLYLINE
  5
C939A
  8
0
 62
     2
 66
     1
 10
0.0
 20
0.0
 30
0.0
  0
VERTEX
  5
C9585
  8
0
 62
     2
 10
0.0
 20
41.0
 30
0.0
  0
VERTEX
  5
C9586
  8
0
 62
     2
 10
-51.0
 20
41.0
 30
0.0
  0
SEQEND
  5
C9587
  8
0
 62
     2
  0
POLYLINE
  5
C939B
  8
0
 62
     2
 66
     1
 10
0.0
 20
0.0
 30
0.0
  0
VERTEX
  5
C9588
  8
0
 62
     2
 10
0.0
 20
46.0
 30
0.0
  0
VERTEX
  5
C9589
  8
0
 62
     2
 10
-200.0
 20
46.0
 30
0.0
  0
SEQEND
  5
C958A
  8
0
 62
     2
  0
TEXT
  5
C939C
  8
035
 10
517.653158
 20
512.84859
 30
0.0
 40
3.5
  1
  
 41
0.7
 51
15.0
  0
LINE
  5
C939D
  8
05
 10
-109.786833
 20
1.991866
 30
0.0
 11
-107.121854
 21
1.991866
 31
0.0
  0
LINE
  5
C939E
  8
05
 10
-109.786833
 20
1.991866
 30
0.0
 11
-108.884845
 21
5.721227
 31
0.0
  0
LINE
  5
C939F
  8
05
 10
-97.883057
 20
2.941046
 30
0.0
 11
-97.741768
 21
3.525221
 31
0.0
  0
LINE
  5
C93A0
  8
05
 10
-100.626753
 20
1.985934
 30
0.0
 11
-99.73917
 21
5.655734
 31
0.0
  0
LINE
  5
C93A1
  8
05
 10
-101.65257
 20
1.991866
 30
0.0
 11
-103.777929
 21
3.44834
 31
0.0
  0
LINE
  5
C93A2
  8
05
 10
-104.575338
 20
1.991866
 30
0.0
 11
-106.759794
 21
3.488838
 31
0.0
  0
LINE
  5
C93A3
  8
05
 10
-107.121854
 20
1.991866
 30
0.0
 11
-106.759794
 21
3.488838
 31
0.0
  0
LINE
  5
C93A4
  8
05
 10
-78.264922
 20
1.991866
 30
0.0
 11
-80.343243
 21
4.257016
 31
0.0
  0
LINE
  5
C93A5
  8
05
 10
-75.015521
 20
1.991866
 30
0.0
 11
-74.129372
 21
5.655734
 31
0.0
  0
LINE
  5
C93A6
  8
05
 10
-80.891096
 20
1.991866
 30
0.0
 11
-80.343243
 21
4.257016
 31
0.0
  0
LINE
  5
C93A7
  8
05
 10
-83.271451
 20
1.991866
 30
0.0
 11
-82.385303
 21
5.655734
 31
0.0
  0
LINE
  5
C93A8
  8
05
 10
-86.159077
 20
5.655734
 30
0.0
 11
-84.240668
 21
1.991866
 31
0.0
  0
LINE
  5
C93A9
  8
05
 10
-92.656302
 20
1.991866
 30
0.0
 11
-89.202895
 21
5.655734
 31
0.0
  0
LINE
  5
C93AA
  8
05
 10
-99.73917
 20
5.655734
 30
0.0
 11
-92.981554
 21
5.655734
 31
0.0
  0
LINE
  5
C93AB
  8
05
 10
-97.554768
 20
4.298391
 30
0.0
 11
-97.430101
 21
4.813838
 31
0.0
  0
LINE
  5
C93AC
  8
05
 10
-97.741768
 20
3.525221
 30
0.0
 11
-94.44862
 21
3.525221
 31
0.0
  0
LINE
  5
C93AD
  8
05
 10
-97.554768
 20
4.298391
 30
0.0
 11
-94.26162
 21
4.298391
 31
0.0
  0
ARC
  5
C93AE
  8
05
 10
-103.5768
 20
1.048488
 30
0.0
 40
4.603731
 50
69.562986
 51
81.731692
  0
ARC
  5
C93AF
  8
05
 10
-104.360333
 20
9.695316
 30
0.0
 40
6.274066
 50
275.326278
 51
289.525993
  0
ARC
  5
C93B0
  8
05
 10
-102.594066
 20
4.972077
 30
0.0
 40
1.232717
 50
286.581886
 51
338.146956
  0
ARC
  5
C93B1
  8
05
 10
-102.021937
 20
4.683869
 30
0.0
 40
0.597227
 50
340.399744
 51
51.414228
  0
ARC
  5
C93B2
  8
05
 10
-102.925451
 20
3.563011
 30
0.0
 40
2.0377
 50
51.536856
 51
62.015041
  0
ARC
  5
C93B3
  8
05
 10
-105.569755
 20
-23.421024
 30
0.0
 40
29.146566
 50
84.676683
 51
90.985976
  0
ARC
  5
C93B4
  8
05
 10
-105.662755
 20
8.045413
 30
0.0
 40
4.086755
 50
273.844537
 51
284.464628
  0
ARC
  5
C93B5
  8
05
 10
-105.461356
 20
1.639787
 30
0.0
 40
3.317438
 50
71.64551
 51
85.712788
  0
ARC
  5
C93B6
  8
05
 10
-105.266143
 20
5.623081
 30
0.0
 40
1.656947
 50
292.130003
 51
304.027207
  0
ARC
  5
C93B7
  8
05
 10
-104.533103
 20
4.496732
 30
0.0
 40
0.314086
 50
308.183971
 51
68.249048
  0
LINE
  5
C93B8
  8
05
 10
-106.682865
 20
3.967854
 30
0.0
 11
-106.445819
 21
4.947943
 31
0.0
  0
LINE
  5
C93B9
  8
05
 10
-106.682865
 20
3.967854
 30
0.0
 11
-105.38874
 21
3.967854
 31
0.0
  0
LINE
  5
C93BA
  8
05
 10
-106.445819
 20
4.947943
 30
0.0
 11
-105.213357
 21
4.947943
 31
0.0
  0
LINE
  5
C93BB
  8
05
 10
-108.884845
 20
5.721227
 30
0.0
 11
-106.001611
 21
5.721227
 31
0.0
  0
LINE
  5
C93BC
  8
05
 10
-93.185176
 20
4.813838
 30
0.0
 11
-92.981554
 21
5.655734
 31
0.0
  0
LINE
  5
C93BD
  8
05
 10
-97.430101
 20
4.813838
 30
0.0
 11
-93.185176
 21
4.813838
 31
0.0
  0
LINE
  5
C93BE
  8
05
 10
-94.44862
 20
3.525221
 30
0.0
 11
-94.26162
 21
4.298391
 31
0.0
  0
LINE
  5
C93BF
  8
05
 10
-77.190213
 20
3.465139
 30
0.0
 11
-76.660393
 21
5.655734
 31
0.0
  0
LINE
  5
C93C0
  8
05
 10
-81.626596
 20
5.655734
 30
0.0
 11
-81.629003
 21
5.658357
 31
0.0
  0
LINE
  5
C93C1
  8
05
 10
-76.660393
 20
5.655734
 30
0.0
 11
-74.129372
 21
5.655734
 31
0.0
  0
LINE
  5
C93C2
  8
05
 10
-77.190213
 20
3.465139
 30
0.0
 11
-79.20013
 21
5.655734
 31
0.0
  0
LINE
  5
C93C3
  8
05
 10
-82.385303
 20
5.655734
 30
0.0
 11
-79.20013
 21
5.655734
 31
0.0
  0
LINE
  5
C93C4
  8
05
 10
-89.117244
 20
3.284678
 30
0.0
 11
-87.581879
 21
3.284678
 31
0.0
  0
LINE
  5
C93C5
  8
05
 10
-89.117244
 20
3.284678
 30
0.0
 11
-88.130196
 21
4.33188
 31
0.0
  0
LINE
  5
C93C6
  8
05
 10
-88.130196
 20
4.33188
 30
0.0
 11
-87.581879
 21
3.284678
 31
0.0
  0
LINE
  5
C93C7
  8
05
 10
-89.202895
 20
5.655734
 30
0.0
 11
-86.159077
 21
5.655734
 31
0.0
  0
LINE
  5
C93C8
  8
05
 10
-90.335794
 20
1.991866
 30
0.0
 11
-89.910781
 21
2.442781
 31
0.0
  0
LINE
  5
C93C9
  8
05
 10
-100.625318
 20
1.991866
 30
0.0
 11
-93.867702
 21
1.991866
 31
0.0
  0
LINE
  5
C93CA
  8
05
 10
-97.883057
 20
2.941046
 30
0.0
 11
-93.638132
 21
2.941046
 31
0.0
  0
LINE
  5
C93CB
  8
05
 10
-104.575338
 20
1.991866
 30
0.0
 11
-101.582882
 21
1.991866
 31
0.0
  0
LINE
  5
C93CC
  8
05
 10
-92.656302
 20
1.991866
 30
0.0
 11
-90.335794
 21
1.991866
 31
0.0
  0
LINE
  5
C93CD
  8
05
 10
-93.869137
 20
1.985934
 30
0.0
 11
-93.638132
 21
2.941046
 31
0.0
  0
LINE
  5
C93CE
  8
05
 10
-78.264922
 20
1.991866
 30
0.0
 11
-75.015521
 21
1.991866
 31
0.0
  0
LINE
  5
C93CF
  8
05
 10
-83.271451
 20
1.991866
 30
0.0
 11
-80.891096
 21
1.991866
 31
0.0
  0
LINE
  5
C93D0
  8
05
 10
-89.910781
 20
2.442781
 30
0.0
 11
-87.141059
 21
2.442781
 31
0.0
  0
LINE
  5
C93D1
  8
05
 10
-87.141059
 20
2.442781
 30
0.0
 11
-86.90496
 21
1.991866
 31
0.0
  0
LINE
  5
C93D2
  8
05
 10
-86.90496
 20
1.991866
 30
0.0
 11
-84.240668
 21
1.991866
 31
0.0
  0
ENDBLK
  5
C93D4
  8
0
  0
BLOCK
  8
0
  2
A$C36291E6D
 70
     0
 10
0.0
 20
0.0
 30
0.0
  3
A$C36291E6D
  1

  0
LINE
  5
C93D6
  8
025
 10
1.130109
 20
0.0
 30
0.0
 11
0.0
 21
0.27333
 31
0.0
  0
LINE
  5
C93D7
  8
025
 10
1.130109
 20
0.0
 30
0.0
 11
1.130109
 21
0.807569
 31
0.0
  0
LINE
  5
C93D8
  8
025
 10
1.130109
 20
5.19107
 30
0.0
 11
0.019846
 21
6.237557
 31
0.0
  0
LINE
  5
C93D9
  8
025
 10
0.019846
 20
7.159926
 30
0.0
 11
1.130109
 21
7.741262
 31
0.0
  0
LINE
  5
C93DA
  8
025
 10
1.130109
 20
8.034964
 30
0.0
 11
0.019846
 21
8.303494
 31
0.0
  0
LINE
  5
C93DB
  8
025
 10
1.130109
 20
8.756284
 30
0.0
 11
0.4437
 21
8.9223
 31
0.0
  0
LINE
  5
C93DC
  8
025
 10
1.130109
 20
10.536761
 30
0.0
 11
0.019846
 21
10.805291
 31
0.0
  0
LINE
  5
C93DD
  8
025
 10
1.130109
 20
9.552094
 30
0.0
 11
0.4437
 21
8.9223
 31
0.0
  0
LINE
  5
C93DE
  8
025
 10
1.130109
 20
0.807569
 30
0.0
 11
0.676481
 21
0.917284
 31
0.0
  0
LINE
  5
C93DF
  8
025
 10
1.130109
 20
1.579241
 30
0.0
 11
0.676481
 21
0.917284
 31
0.0
  0
LINE
  5
C93E0
  8
025
 10
1.130109
 20
2.464928
 30
0.0
 11
0.688754
 21
1.82088
 31
0.0
  0
LINE
  5
C93E1
  8
025
 10
1.131907
 20
2.775782
 30
0.0
 11
0.019846
 21
3.044746
 31
0.0
  0
LINE
  5
C93E2
  8
025
 10
0.842479
 20
3.607205
 30
0.0
 11
0.665456
 21
3.65002
 31
0.0
  0
LINE
  5
C93E3
  8
025
 10
0.665456
 20
4.647943
 30
0.0
 11
0.431162
 21
4.70461
 31
0.0
  0
LINE
  5
C93E4
  8
025
 10
0.274966
 20
3.744464
 30
0.0
 11
0.274966
 21
5.030805
 31
0.0
  0
LINE
  5
C93E5
  8
025
 10
0.274966
 20
5.030805
 30
0.0
 11
0.019846
 21
5.092509
 31
0.0
  0
LINE
  5
C93E6
  8
025
 10
0.0
 20
0.27333
 30
0.0
 11
0.0
 21
1.147037
 31
0.0
  0
LINE
  5
C93E7
  8
025
 10
0.234328
 20
1.012428
 30
0.0
 11
0.234328
 21
1.385901
 31
0.0
  0
LINE
  5
C93E8
  8
025
 10
0.531325
 20
0.940596
 30
0.0
 11
0.531325
 21
1.332755
 31
0.0
  0
LINE
  5
C93E9
  8
025
 10
0.531325
 20
0.940596
 30
0.0
 11
0.234328
 21
1.012428
 31
0.0
  0
ARC
  5
C93EA
  8
025
 10
0.371059
 20
1.592039
 30
0.0
 40
0.095178
 50
38.183971
 51
158.249048
  0
ARC
  5
C93EB
  8
025
 10
0.029741
 20
1.369906
 30
0.0
 40
0.502105
 50
22.130003
 51
34.027207
  0
ARC
  5
C93EC
  8
025
 10
1.2368
 20
1.31075
 30
0.0
 40
1.005284
 50
161.64551
 51
175.712788
  0
ARC
  5
C93ED
  8
025
 10
-0.704299
 20
1.24972
 30
0.0
 40
1.238411
 50
3.844537
 51
14.464628
  0
ARC
  5
C93EE
  8
025
 10
8.830985
 20
1.277902
 30
0.0
 40
8.832293
 50
174.676683
 51
180.985976
  0
ARC
  5
C93EF
  8
025
 10
0.654005
 20
2.079206
 30
0.0
 40
0.617485
 50
141.536856
 51
152.015041
  0
ARC
  5
C93F0
  8
025
 10
0.314351
 20
2.352999
 30
0.0
 40
0.180978
 50
70.399744
 51
141.414228
  0
ARC
  5
C93F1
  8
025
 10
0.227015
 20
2.179626
 30
0.0
 40
0.373551
 50
16.581886
 51
68.146956
  0
ARC
  5
C93F2
  8
025
 10
-1.204269
 20
1.644394
 30
0.0
 40
1.901232
 50
5.326278
 51
19.525993
  0
ARC
  5
C93F3
  8
025
 10
1.415981
 20
1.881828
 30
0.0
 40
1.39507
 50
159.562986
 51
171.731692
  0
LINE
  5
C93F4
  8
025
 10
0.431162
 20
3.706686
 30
0.0
 11
0.431162
 21
4.70461
 31
0.0
  0
LINE
  5
C93F5
  8
025
 10
0.665456
 20
3.65002
 30
0.0
 11
0.665456
 21
4.647943
 31
0.0
  0
LINE
  5
C93F6
  8
025
 10
0.431162
 20
3.706686
 30
0.0
 11
0.274966
 21
3.744464
 31
0.0
  0
LINE
  5
C93F7
  8
025
 10
0.019846
 20
3.044746
 30
0.0
 11
0.019846
 21
5.092509
 31
0.0
  0
LINE
  5
C93F8
  8
025
 10
0.019846
 20
6.237557
 30
0.0
 11
0.019846
 21
7.159926
 31
0.0
  0
LINE
  5
C93F9
  8
025
 10
0.421014
 20
6.562617
 30
0.0
 11
0.738348
 21
6.728774
 31
0.0
  0
LINE
  5
C93FA
  8
025
 10
0.738348
 20
6.263512
 30
0.0
 11
0.421014
 21
6.562617
 31
0.0
  0
LINE
  5
C93FB
  8
025
 10
0.738348
 20
6.263512
 30
0.0
 11
0.738348
 21
6.728774
 31
0.0
  0
LINE
  5
C93FC
  8
025
 10
0.019846
 20
8.303494
 30
0.0
 11
0.019846
 21
9.268698
 31
0.0
  0
LINE
  5
C93FD
  8
025
 10
0.683663
 20
9.877763
 30
0.0
 11
0.019846
 21
9.268698
 31
0.0
  0
LINE
  5
C93FE
  8
025
 10
0.019846
 20
10.038315
 30
0.0
 11
0.019846
 21
10.805291
 31
0.0
  0
LINE
  5
C93FF
  8
025
 10
0.019846
 20
8.533405
 30
0.0
 11
0.019051
 21
8.532675
 31
0.0
  0
LINE
  5
C9400
  8
025
 10
0.683663
 20
9.877763
 30
0.0
 11
0.019846
 21
10.038315
 31
0.0
  0
LINE
  5
C9401
  8
025
 10
1.130109
 20
5.894254
 30
0.0
 11
0.993468
 21
6.023046
 31
0.0
  0
LINE
  5
C9402
  8
025
 10
1.131907
 20
4.823544
 30
0.0
 11
0.842479
 21
4.893546
 31
0.0
  0
LINE
  5
C9403
  8
025
 10
1.130109
 20
5.19107
 30
0.0
 11
1.130109
 21
5.894254
 31
0.0
  0
LINE
  5
C9404
  8
025
 10
1.130109
 20
1.579241
 30
0.0
 11
1.130109
 21
2.486046
 31
0.0
  0
LINE
  5
C9405
  8
025
 10
0.842479
 20
3.607205
 30
0.0
 11
0.842479
 21
4.893546
 31
0.0
  0
LINE
  5
C9406
  8
025
 10
1.130109
 20
2.776216
 30
0.0
 11
1.130109
 21
4.823979
 31
0.0
  0
LINE
  5
C9407
  8
025
 10
1.130109
 20
6.933901
 30
0.0
 11
1.130109
 21
7.741262
 31
0.0
  0
LINE
  5
C9408
  8
025
 10
0.993468
 20
6.862355
 30
0.0
 11
1.130109
 21
6.933901
 31
0.0
  0
LINE
  5
C9409
  8
025
 10
0.993468
 20
6.023046
 30
0.0
 11
0.993468
 21
6.862355
 31
0.0
  0
LINE
  5
C940A
  8
025
 10
1.130109
 20
8.034964
 30
0.0
 11
1.130109
 21
8.756284
 31
0.0
  0
LINE
  5
C940B
  8
025
 10
1.130109
 20
9.552094
 30
0.0
 11
1.130109
 21
10.536761
 31
0.0
  0
ENDBLK
  5
C940D
  8
0
  0
BLOCK
  8
0
  2
A$C12DE4CDB
 70
     0
 10
0.0
 20
0.0
 30
0.0
  3
A$C12DE4CDB
  1

  0
INSERT
  5
C940F
  8
BEM1
  2
A$C36291E6D
 10
0.0
 20
0.000001
 30
0.0
 41
1.563725
 42
1.563725
 43
1.563725
  0
ENDBLK
  5
C9411
  8
0
  0
BLOCK
  8
0
  2
A$C4A626044
 70
     0
 10
0.0
 20
0.0
 30
0.0
  3
A$C4A626044
  1

  0
INSERT
  5
C9413
  8
035
  2
A$C12DE4CDB
 10
92.573756
 20
171.454014
 30
0.0
 41
0.56
 42
0.56
 43
0.56
  0
INSERT
  5
C9414
  8
BEM1
 66
     1
  2
ZKOPF-REAN
 10
200.0
 20
0.0
 30
0.0
  0
ATTRIB
  5
C9415
  8
0
 62
     4
 10
184.833333
 20
37.0
 30
0.0
 40
2.5
  1
Battlogg
  7
SCRIPTS
 72
     1
 11
191.5
 21
37.0
 31
0.0
  2
NAME
 70
     0
  0
ATTRIB
  5
C9416
  8
0
 62
     4
 10
170.979167
 20
37.0
 30
0.0
 40
2.5
  1
01.02.01
 41
0.7
 51
15.0
 72
     1
 11
175.5
 21
37.0
 31
0.0
  2
DATE
 70
     0
  0
ATTRIB
  5
C9417
  8
0
 62
     4
 10
119.5
 20
36.0
 30
0.0
 40
2.5
  1

 41
0.7
 51
15.0
 72
     1
 11
119.5
 21
36.0
 31
0.0
  2
WERKSTOFF
 70
     0
  0
ATTRIB
  5
C9418
  8
0
 62
     2
 10
96.333333
 20
12.5
 30
0.0
 40
5.0
  1
NYS 352
 41
0.7
 51
15.0
 72
     1
 11
108.0
 21
12.5
 31
0.0
  2
BENENNUNG
 70
     0
  0
ATTRIB
  5
C9419
  8
0
 62
     3
 10
90.95121
 20
21.082191
 30
0.0
 40
3.5
  1
Phono ("RCA") Type
 41
0.7
 51
15.0
 72
     1
 11
110.959543
 21
21.082191
 31
0.0
  2
TEIL
 70
     0
  0
ATTRIB
  5
C941A
  8
0
 62
     3
 10
164.545614
 20
1.976541
 30
0.0
 40
3.5
  1
3102 ST 22 42
 41
0.7
 51
15.0
 72
     1
 11
179.449781
 21
1.976541
 31
0.0
  2
NUMMER
 70
     0
  0
ATTRIB
  5
C941B
  8
0
 62
     2
 10
137.100662
 20
34.656056
 30
0.0
 40
5.0
  1
1:1
 41
0.7
 51
15.0
 72
     1
 11
139.433995
 21
34.656056
 31
0.0
  2
MASS
 70
     0
  0
ATTRIB
  5
C941C
  8
0
 62
     3
 10
139.519299
 20
28.210451
 30
0.0
 40
3.5
  1

 41
0.7
 51
15.0
 72
     1
 11
139.519299
 21
28.210451
 31
0.0
  2
MASS2
 70
     0
  0
ATTRIB
  5
C941D
  8
0
 62
     4
 10
119.0
 20
29.0
 30
0.0
 40
2.5
  1

 41
0.7
 51
15.0
 72
     1
 11
119.0
 21
29.0
 31
0.0
  2
TEIL
 70
     0
  0
ATTRIB
  5
C941E
  8
0
 62
     3
 10
92.288548
 20
59.004319
 30
0.0
 40
3.5
  1

 41
0.7
 51
15.0
  2
TOL
 70
     0
  0
ATTRIB
  5
C941F
  8
0
 62
     3
 10
92.288548
 20
54.004319
 30
0.0
 40
3.5
  1

 41
0.7
 51
15.0
  2
RADIEN
 70
     0
  0
ATTRIB
  5
C9420
  8
0
 62
     3
 10
92.288548
 20
49.004319
 30
0.0
 40
3.5
  1

 41
0.7
 51
15.0
  2
FACETTE
 70
     0
  0
ATTRIB
  5
C9421
  8
0
 62
     4
 10
2.813733
 20
7.0
 30
0.0
 40
2.5
  1

 41
0.7
 51
15.0
  2
INDEX1
 70
     0
  0
ATTRIB
  5
C9422
  8
0
 62
     4
 10
9.651257
 20
7.0
 30
0.0
 40
2.5
  1

 41
0.7
 51
15.0
  2
A1
 70
     0
  0
ATTRIB
  5
C9423
  8
0
 62
     4
 10
42.651257
 20
7.0
 30
0.0
 40
2.5
  1

 41
0.7
 51
15.0
  2
DATUM1
 70
     0
  0
ATTRIB
  5
C9424
  8
0
 62
     4
 10
55.53501
 20
7.0
 30
0.0
 40
2.5
  1

 41
0.7
 51
15.0
  2
NAME1
 70
     0
  0
ATTRIB
  5
C9425
  8
0
 62
     4
 10
2.813733
 20
12.0
 30
0.0
 40
2.5
  1

 41
0.7
 51
15.0
  2
INDEX2
 70
     0
  0
ATTRIB
  5
C9426
  8
0
 62
     4
 10
9.651257
 20
12.0
 30
0.0
 40
2.5
  1

 41
0.7
 51
15.0
  2
A2
 70
     0
  0
ATTRIB
  5
C9427
  8
0
 62
     4
 10
42.651257
 20
12.0
 30
0.0
 40
2.5
  1

 41
0.7
 51
15.0
  2
DATUM2
 70
     0
  0
ATTRIB
  5
C9428
  8
0
 62
     4
 10
55.53501
 20
12.0
 30
0.0
 40
2.5
  1

 41
0.7
 51
15.0
  2
NAME2
 70
     0
  0
ATTRIB
  5
C9429
  8
0
 62
     4
 10
2.813733
 20
17.0
 30
0.0
 40
2.5
  1

 41
0.7
 51
15.0
  2
INDEX3
 70
     0
  0
ATTRIB
  5
C942A
  8
0
 62
     4
 10
9.651257
 20
17.0
 30
0.0
 40
2.5
  1

 41
0.7
 51
15.0
  2
A3
 70
     0
  0
ATTRIB
  5
C942B
  8
0
 62
     4
 10
42.651257
 20
17.0
 30
0.0
 40
2.5
  1

 41
0.7
 51
15.0
  2
DATUM3
 70
     0
  0
ATTRIB
  5
C942C
  8
0
 62
     4
 10
55.53501
 20
17.0
 30
0.0
 40
2.5
  1

 41
0.7
 51
15.0
  2
NAME3
 70
     0
  0
ATTRIB
  5
C942D
  8
0
 62
     4
 10
2.813733
 20
22.0
 30
0.0
 40
2.5
  1

 41
0.7
 51
15.0
  2
INDEX4
 70
     0
  0
ATTRIB
  5
C942E
  8
0
 62
     4
 10
9.651257
 20
22.0
 30
0.0
 40
2.5
  1

 41
0.7
 51
15.0
  2
A4
 70
     0
  0
ATTRIB
  5
C942F
  8
0
 62
     4
 10
42.651257
 20
22.0
 30
0.0
 40
2.5
  1

 41
0.7
 51
15.0
  2
DATUM4
 70
     0
  0
ATTRIB
  5
C9430
  8
0
 62
     4
 10
55.53501
 20
22.0
 30
0.0
 40
2.5
  1

 41
0.7
 51
15.0
  2
NAME4
 70
     0
  0
ATTRIB
  5
C9431
  8
0
 62
     4
 10
2.813733
 20
27.0
 30
0.0
 40
2.5
  1

 41
0.7
 51
15.0
  2
INDEX5
 70
     0
  0
ATTRIB
  5
C9432
  8
0
 62
     4
 10
9.651257
 20
27.0
 30
0.0
 40
2.5
  1

 41
0.7
 51
15.0
  2
A5
 70
     0
  0
ATTRIB
  5
C9433
  8
0
 62
     4
 10
42.651257
 20
27.0
 30
0.0
 40
2.5
  1

 41
0.7
 51
15.0
  2
DATUM5
 70
     0
  0
ATTRIB
  5
C9434
  8
0
 62
     4
 10
55.53501
 20
27.0
 30
0.0
 40
2.5
  1

 41
0.7
 51
15.0
  2
NAME5
 70
     0
  0
ATTRIB
  5
C9435
  8
0
 62
     4
 10
2.813733
 20
32.0
 30
0.0
 40
2.5
  1

 41
0.7
 51
15.0
  2
INDEX6
 70
     0
  0
ATTRIB
  5
C9436
  8
0
 62
     4
 10
9.651257
 20
32.0
 30
0.0
 40
2.5
  1

 41
0.7
 51
15.0
  2
A6
 70
     0
  0
ATTRIB
  5
C9437
  8
0
 62
     4
 10
42.651257
 20
32.0
 30
0.0
 40
2.5
  1

 41
0.7
 51
15.0
  2
DATUM6
 70
     0
  0
ATTRIB
  5
C9438
  8
0
 62
     4
 10
55.53501
 20
32.0
 30
0.0
 40
2.5
  1

 41
0.7
 51
15.0
  2
NAME6
 70
     0
  0
ATTRIB
  5
C9439
  8
0
 62
     4
 10
2.813733
 20
37.0
 30
0.0
 40
2.5
  1

 41
0.7
 51
15.0
  2
INDEX7
 70
     0
  0
ATTRIB
  5
C943A
  8
0
 62
     4
 10
9.651257
 20
37.0
 30
0.0
 40
2.5
  1

 41
0.7
 51
15.0
  2
A7
 70
     0
  0
ATTRIB
  5
C943B
  8
0
 62
     4
 10
42.651257
 20
37.0
 30
0.0
 40
2.5
  1

 41
0.7
 51
15.0
  2
DATUM7
 70
     0
  0
ATTRIB
  5
C943C
  8
0
 62
     4
 10
55.53501
 20
37.0
 30
0.0
 40
2.5
  1

 41
0.7
 51
15.0
  2
NAME7
 70
     0
  0
ATTRIB
  5
C943D
  8
0
 62
     4
 10
2.813733
 20
42.0
 30
0.0
 40
2.5
  1

 41
0.7
 51
15.0
  2
INDEX8
 70
     0
  0
ATTRIB
  5
C943E
  8
0
 62
     4
 10
9.651257
 20
42.0
 30
0.0
 40
2.5
  1

 41
0.7
 51
15.0
  2
A8
 70
     0
  0
ATTRIB
  5
C943F
  8
0
 62
     4
 10
42.651257
 20
42.0
 30
0.0
 40
2.5
  1

 41
0.7
 51
15.0
  2
DATUM8
 70
     0
  0
ATTRIB
  5
C9440
  8
0
 62
     4
 10
55.53501
 20
42.0
 30
0.0
 40
2.5
  1

 41
0.7
 51
15.0
  2
NAME8
 70
     0
  0
SEQEND
  5
C9441
  8
BEM1
  0
ENDBLK
  5
C9443
  8
0
  0
ENDSEC
  0
SECTION
  2
ENTITIES
  0
INSERT
  5
30
  8
ASHADE
 62
     1
  2
AVE_RENDER
 10
0.0
 20
0.0
 30
0.0
1001
AVE_RENDER
1002
{
1070
     2
1000
Pref
1070
    40
1070
    20
1070
     1
1070
     0
1000

1070
    10
1070
     0
1070
    30
1040
1.0
1070
     1
1040
0.3
1040
0.7
1040
0.0
1040
10.0
1010
-1.0
1020
-1.0
1030
-1.0
1040
0.3
1070
    49
1002
}
  0
INSERT
  5
31
  8
ASHADE
 62
     3
  2
AVE_RENDER
 10
0.0
 20
0.0
 30
0.0
1001
AVE_RENDER
1002
{
1070
     0
1000
Full Opt
1070
     0
1070
     1
1070
     1
1070
     1
1070
     0
1070
     0
1070
     0
1070
     1
1070
     1
1040
0.0001
1040
0.0001
1002
}
  0
INSERT
  5
32
  8
ASHADE
 62
     4
  2
AVE_RENDER
 10
0.0
 20
0.0
 30
0.0
1001
AVE_RENDER
1002
{
1070
     0
1000
Quick Opt
1070
     0
1070
     1
1070
     1
1070
     1
1070
     1
1070
     0
1070
     1
1002
}
  0
INSERT
  5
36
  8
05
  2
NT_1
 10
98.709341
 20
147.840651
 30
0.0
 41
32.617
 42
-6.863009
 43
32.617
  0
INSERT
  5
5EDB
  8
ASHADE
 62
     1
  2
AVE_RENDER
 10
139.258472
 20
319.744392
 30
0.0
1001
AVE_RENDER
1002
{
1070
     2
1000
Pref
1070
    40
1070
    20
1070
     1
1070
     0
1000

1070
    10
1070
     0
1070
    30
1040
1.0
1070
     1
1040
0.3
1040
0.7
1040
0.0
1040
10.0
1010
-1.0
1020
-1.0
1030
-1.0
1040
0.3
1070
    49
1002
}
  0
INSERT
  5
5EDC
  8
ASHADE
 62
     3
  2
AVE_RENDER
 10
139.258472
 20
319.744392
 30
0.0
1001
AVE_RENDER
1002
{
1070
     0
1000
Full Opt
1070
     0
1070
     1
1070
     1
1070
     1
1070
     0
1070
     0
1070
     0
1070
     1
1070
     1
1040
0.0001
1040
0.0001
1002
}
  0
INSERT
  5
5EDD
  8
ASHADE
 62
     4
  2
AVE_RENDER
 10
139.258472
 20
319.744392
 30
0.0
1001
AVE_RENDER
1002
{
1070
     0
1000
Quick Opt
1070
     0
1070
     1
1070
     1
1070
     1
1070
     1
1070
     0
1070
     1
1002
}
  0
INSERT
  5
5EDE
  8
05
  2
NT_1
 10
237.967814
 20
467.585043
 30
0.0
 41
32.617
 42
-6.863009
 43
32.617
  0
TEXT
  5
6557
  8
035
 10
742.33536
 20
834.371811
 30
0.0
 40
3.5
  1
  
 41
0.7
 51
15.0
  0
INSERT
  5
6C6B
  8
ASHADE
 62
     1
  2
AVE_RENDER
 10
14.105509
 20
318.025486
 30
0.0
1001
AVE_RENDER
1002
{
1070
     2
1000
Pref
1070
    40
1070
    20
1070
     1
1070
     0
1000

1070
    10
1070
     0
1070
    30
1040
1.0
1070
     1
1040
0.3
1040
0.7
1040
0.0
1040
10.0
1010
-1.0
1020
-1.0
1030
-1.0
1040
0.3
1070
    49
1002
}
  0
INSERT
  5
6C6C
  8
ASHADE
 62
     3
  2
AVE_RENDER
 10
14.105509
 20
318.025486
 30
0.0
1001
AVE_RENDER
1002
{
1070
     0
1000
Full Opt
1070
     0
1070
     1
1070
     1
1070
     1
1070
     0
1070
     0
1070
     0
1070
     1
1070
     1
1040
0.0001
1040
0.0001
1002
}
  0
INSERT
  5
6C6D
  8
ASHADE
 62
     4
  2
AVE_RENDER
 10
14.105509
 20
318.025486
 30
0.0
1001
AVE_RENDER
1002
{
1070
     0
1000
Quick Opt
1070
     0
1070
     1
1070
     1
1070
     1
1070
     1
1070
     0
1070
     1
1002
}
  0
INSERT
  5
6C71
  8
05
  2
NT_1
 10
112.81485
 20
465.866137
 30
0.0
 41
32.617
 42
-6.863009
 43
32.617
  0
INSERT
  5
CB16
  8
ASHADE
 62
     1
  2
AVE_RENDER
 10
153.363981
 20
637.769878
 30
0.0
1001
AVE_RENDER
1002
{
1070
     2
1000
Pref
1070
    40
1070
    20
1070
     1
1070
     0
1000

1070
    10
1070
     0
1070
    30
1040
1.0
1070
     1
1040
0.3
1040
0.7
1040
0.0
1040
10.0
1010
-1.0
1020
-1.0
1030
-1.0
1040
0.3
1070
    49
1002
}
  0
INSERT
  5
CB17
  8
ASHADE
 62
     3
  2
AVE_RENDER
 10
153.363981
 20
637.769878
 30
0.0
1001
AVE_RENDER
1002
{
1070
     0
1000
Full Opt
1070
     0
1070
     1
1070
     1
1070
     1
1070
     0
1070
     0
1070
     0
1070
     1
1070
     1
1040
0.0001
1040
0.0001
1002
}
  0
INSERT
  5
CB18
  8
ASHADE
 62
     4
  2
AVE_RENDER
 10
153.363981
 20
637.769878
 30
0.0
1001
AVE_RENDER
1002
{
1070
     0
1000
Quick Opt
1070
     0
1070
     1
1070
     1
1070
     1
1070
     1
1070
     0
1070
     1
1002
}
  0
INSERT
  5
CB19
  8
05
  2
NT_1
 10
252.073323
 20
785.610529
 30
0.0
 41
32.617
 42
-6.863009
 43
32.617
  0
TEXT
  5
CE91
  8
025
 10
457.333144
 20
249.370153
 30
0.0
 40
2.5
  1

 41
0.9
 51
10.0
  7
HELV
  0
INSERT
  5
D021
  8
ASHADE
 62
     1
  2
AVE_RENDER
 10
177.792624
 20
318.451751
 30
0.0
1001
AVE_RENDER
1002
{
1070
     2
1000
Pref
1070
    40
1070
    20
1070
     1
1070
     0
1000

1070
    10
1070
     0
1070
    30
1040
1.0
1070
     1
1040
0.3
1040
0.7
1040
0.0
1040
10.0
1010
-1.0
1020
-1.0
1030
-1.0
1040
0.3
1070
    49
1002
}
  0
INSERT
  5
D022
  8
ASHADE
 62
     3
  2
AVE_RENDER
 10
177.792624
 20
318.451751
 30
0.0
1001
AVE_RENDER
1002
{
1070
     0
1000
Full Opt
1070
     0
1070
     1
1070
     1
1070
     1
1070
     0
1070
     0
1070
     0
1070
     1
1070
     1
1040
0.0001
1040
0.0001
1002
}
  0
INSERT
  5
D023
  8
ASHADE
 62
     4
  2
AVE_RENDER
 10
177.792624
 20
318.451751
 30
0.0
1001
AVE_RENDER
1002
{
1070
     0
1000
Quick Opt
1070
     0
1070
     1
1070
     1
1070
     1
1070
     1
1070
     0
1070
     1
1002
}
  0
INSERT
  5
D027
  8
05
  2
NT_1
 10
276.501965
 20
466.292402
 30
0.0
 41
32.617
 42
-6.863009
 43
32.617
  0
INSERT
  5
F83A
  8
ASHADE
 62
     1
  2
AVE_RENDER
 10
483.644127
 20
320.062437
 30
0.0
1001
AVE_RENDER
1002
{
1070
     2
1000
Pref
1070
    40
1070
    20
1070
     1
1070
     0
1000

1070
    10
1070
     0
1070
    30
1040
1.0
1070
     1
1040
0.3
1040
0.7
1040
0.0
1040
10.0
1010
-1.0
1020
-1.0
1030
-1.0
1040
0.3
1070
    49
1002
}
  0
INSERT
  5
F83B
  8
ASHADE
 62
     3
  2
AVE_RENDER
 10
483.644127
 20
320.062437
 30
0.0
1001
AVE_RENDER
1002
{
1070
     0
1000
Full Opt
1070
     0
1070
     1
1070
     1
1070
     1
1070
     0
1070
     0
1070
     0
1070
     1
1070
     1
1040
0.0001
1040
0.0001
1002
}
  0
INSERT
  5
F83C
  8
ASHADE
 62
     4
  2
AVE_RENDER
 10
483.644127
 20
320.062437
 30
0.0
1001
AVE_RENDER
1002
{
1070
     0
1000
Quick Opt
1070
     0
1070
     1
1070
     1
1070
     1
1070
     1
1070
     0
1070
     1
1002
}
  0
INSERT
  5
F840
  8
05
  2
NT_1
 10
582.353468
 20
467.903088
 30
0.0
 41
32.617
 42
-6.863009
 43
32.617
  0
INSERT
  5
13B62
  8
025
  2
ACAD
 10
177.792624
 20
318.451751
 30
0.0
  0
INSERT
  5
18666
  8
ASHADE
 62
     1
  2
AVE_RENDER
 10
474.792624
 20
318.451751
 30
0.0
1001
AVE_RENDER
1002
{
1070
     2
1000
Pref
1070
    40
1070
    20
1070
     1
1070
     0
1000

1070
    10
1070
     0
1070
    30
1040
1.0
1070
     1
1040
0.3
1040
0.7
1040
0.0
1040
10.0
1010
-1.0
1020
-1.0
1030
-1.0
1040
0.3
1070
    49
1002
}
  0
INSERT
  5
18667
  8
ASHADE
 62
     3
  2
AVE_RENDER
 10
474.792624
 20
318.451751
 30
0.0
1001
AVE_RENDER
1002
{
1070
     0
1000
Full Opt
1070
     0
1070
     1
1070
     1
1070
     1
1070
     0
1070
     0
1070
     0
1070
     1
1070
     1
1040
0.0001
1040
0.0001
1002
}
  0
INSERT
  5
18668
  8
ASHADE
 62
     4
  2
AVE_RENDER
 10
474.792624
 20
318.451751
 30
0.0
1001
AVE_RENDER
1002
{
1070
     0
1000
Quick Opt
1070
     0
1070
     1
1070
     1
1070
     1
1070
     1
1070
     0
1070
     1
1002
}
  0
INSERT
  5
1866C
  8
05
  2
NT_1
 10
573.501965
 20
466.292402
 30
0.0
 41
32.617
 42
-6.863009
 43
32.617
  0
INSERT
  5
1AE7F
  8
ASHADE
 62
     1
  2
AVE_RENDER
 10
780.644127
 20
320.062437
 30
0.0
1001
AVE_RENDER
1002
{
1070
     2
1000
Pref
1070
    40
1070
    20
1070
     1
1070
     0
1000

1070
    10
1070
     0
1070
    30
1040
1.0
1070
     1
1040
0.3
1040
0.7
1040
0.0
1040
10.0
1010
-1.0
1020
-1.0
1030
-1.0
1040
0.3
1070
    49
1002
}
  0
INSERT
  5
1AE80
  8
ASHADE
 62
     3
  2
AVE_RENDER
 10
780.644127
 20
320.062437
 30
0.0
1001
AVE_RENDER
1002
{
1070
     0
1000
Full Opt
1070
     0
1070
     1
1070
     1
1070
     1
1070
     0
1070
     0
1070
     0
1070
     1
1070
     1
1040
0.0001
1040
0.0001
1002
}
  0
INSERT
  5
1AE81
  8
ASHADE
 62
     4
  2
AVE_RENDER
 10
780.644127
 20
320.062437
 30
0.0
1001
AVE_RENDER
1002
{
1070
     0
1000
Quick Opt
1070
     0
1070
     1
1070
     1
1070
     1
1070
     1
1070
     0
1070
     1
1002
}
  0
INSERT
  5
1AE85
  8
05
  2
NT_1
 10
879.353468
 20
467.903088
 30
0.0
 41
32.617
 42
-6.863009
 43
32.617
  0
INSERT
  5
1F1A7
  8
025
  2
ACAD
 10
474.792624
 20
318.451751
 30
0.0
  0
INSERT
  5
2812E
  8
ASHADE
 62
     1
  2
AVE_RENDER
 10
248.196721
 20
315.779426
 30
0.0
1001
AVE_RENDER
1002
{
1070
     2
1000
Pref
1070
    40
1070
    20
1070
     1
1070
     0
1000

1070
    10
1070
     0
1070
    30
1040
1.0
1070
     1
1040
0.3
1040
0.7
1040
0.0
1040
10.0
1010
-1.0
1020
-1.0
1030
-1.0
1040
0.3
1070
    49
1002
}
  0
INSERT
  5
2812F
  8
ASHADE
 62
     3
  2
AVE_RENDER
 10
248.196721
 20
315.779426
 30
0.0
1001
AVE_RENDER
1002
{
1070
     0
1000
Full Opt
1070
     0
1070
     1
1070
     1
1070
     1
1070
     0
1070
     0
1070
     0
1070
     1
1070
     1
1040
0.0001
1040
0.0001
1002
}
  0
INSERT
  5
28130
  8
ASHADE
 62
     4
  2
AVE_RENDER
 10
248.196721
 20
315.779426
 30
0.0
1001
AVE_RENDER
1002
{
1070
     0
1000
Quick Opt
1070
     0
1070
     1
1070
     1
1070
     1
1070
     1
1070
     0
1070
     1
1002
}
  0
INSERT
  5
28134
  8
05
  2
NT_1
 10
346.906063
 20
463.620077
 30
0.0
 41
32.617
 42
-6.863009
 43
32.617
  0
INSERT
  5
2A313
  8
ASHADE
 62
     1
  2
AVE_RENDER
 10
222.35218
 20
320.233299
 30
0.0
1001
AVE_RENDER
1002
{
1070
     2
1000
Pref
1070
    40
1070
    20
1070
     1
1070
     0
1000

1070
    10
1070
     0
1070
    30
1040
1.0
1070
     1
1040
0.3
1040
0.7
1040
0.0
1040
10.0
1010
-1.0
1020
-1.0
1030
-1.0
1040
0.3
1070
    49
1002
}
  0
INSERT
  5
2A314
  8
ASHADE
 62
     3
  2
AVE_RENDER
 10
222.35218
 20
320.233299
 30
0.0
1001
AVE_RENDER
1002
{
1070
     0
1000
Full Opt
1070
     0
1070
     1
1070
     1
1070
     1
1070
     0
1070
     0
1070
     0
1070
     1
1070
     1
1040
0.0001
1040
0.0001
1002
}
  0
INSERT
  5
2A315
  8
ASHADE
 62
     4
  2
AVE_RENDER
 10
222.35218
 20
320.233299
 30
0.0
1001
AVE_RENDER
1002
{
1070
     0
1000
Quick Opt
1070
     0
1070
     1
1070
     1
1070
     1
1070
     1
1070
     0
1070
     1
1002
}
  0
INSERT
  5
2A319
  8
05
  2
NT_1
 10
321.061521
 20
468.07395
 30
0.0
 41
32.617
 42
-6.863009
 43
32.617
  0
INSERT
  5
2BC33
  8
025
  2
ACAD
 10
0.0
 20
0.0
 30
0.0
  0
INSERT
  5
2C19F
  8
BEM1
  2
ACAD
 10
0.0
 20
0.0
 30
0.0
  0
TEXT
  5
2DD8B
  8
035
 10
950.789697
 20
673.501532
 30
0.0
 40
3.5
  1
  
 41
0.7
 51
15.0
  0
TEXT
  5
2DF0A
  8
035
 10
978.473652
 20
819.610505
 30
0.0
 40
3.5
  1
  
 41
0.7
 51
15.0
  0
TEXT
  5
2DF0B
  8
035
 10
928.481666
 20
938.699275
 30
0.0
 40
3.5
  1
  
 41
0.7
 51
15.0
  0
TEXT
  5
2DF0C
  8
035
 10
1009.084384
 20
848.696259
 30
0.0
 40
3.5
  1
  
 41
0.7
 51
15.0
  0
TEXT
  5
2DF0D
  8
035
 10
959.092399
 20
967.785029
 30
0.0
 40
3.5
  1
  
 41
0.7
 51
15.0
  0
TEXT
  5
2DF0E
  8
035
 10
978.473652
 20
819.610505
 30
0.0
 40
3.5
  1
  
 41
0.7
 51
15.0
  0
TEXT
  5
2DF0F
  8
035
 10
928.481666
 20
938.699275
 30
0.0
 40
3.5
  1
  
 41
0.7
 51
15.0
  0
TEXT
  5
2DF10
  8
035
 10
1152.77774
 20
1044.456036
 30
0.0
 40
3.5
  1
  
 41
0.7
 51
15.0
  0
TEXT
  5
2DF11
  8
035
 10
1102.785755
 20
1163.544806
 30
0.0
 40
3.5
  1
  
 41
0.7
 51
15.0
  0
INSERT
  5
2E1B5
  8
ASHADE
 62
     1
  2
AVE_RENDER
 10
244.824194
 20
199.991892
 30
0.0
1001
AVE_RENDER
1002
{
1070
     2
1000
Pref
1070
    40
1070
    20
1070
     1
1070
     0
1000

1070
    10
1070
     0
1070
    30
1040
1.0
1070
     1
1040
0.3
1040
0.7
1040
0.0
1040
10.0
1010
-1.0
1020
-1.0
1030
-1.0
1040
0.3
1070
    49
1002
}
  0
INSERT
  5
2E1B6
  8
ASHADE
 62
     3
  2
AVE_RENDER
 10
244.824194
 20
199.991892
 30
0.0
1001
AVE_RENDER
1002
{
1070
     0
1000
Full Opt
1070
     0
1070
     1
1070
     1
1070
     1
1070
     0
1070
     0
1070
     0
1070
     1
1070
     1
1040
0.0001
1040
0.0001
1002
}
  0
INSERT
  5
2E1B7
  8
ASHADE
 62
     4
  2
AVE_RENDER
 10
244.824194
 20
199.991892
 30
0.0
1001
AVE_RENDER
1002
{
1070
     0
1000
Quick Opt
1070
     0
1070
     1
1070
     1
1070
     1
1070
     1
1070
     0
1070
     1
1002
}
  0
INSERT
  5
2E1BB
  8
05
  2
NT_1
 10
343.533535
 20
347.832544
 30
0.0
 41
32.617
 42
-6.863009
 43
32.617
  0
INSERT
  5
309CE
  8
ASHADE
 62
     1
  2
AVE_RENDER
 10
550.675697
 20
201.602579
 30
0.0
1001
AVE_RENDER
1002
{
1070
     2
1000
Pref
1070
    40
1070
    20
1070
     1
1070
     0
1000

1070
    10
1070
     0
1070
    30
1040
1.0
1070
     1
1040
0.3
1040
0.7
1040
0.0
1040
10.0
1010
-1.0
1020
-1.0
1030
-1.0
1040
0.3
1070
    49
1002
}
  0
INSERT
  5
309CF
  8
ASHADE
 62
     3
  2
AVE_RENDER
 10
550.675697
 20
201.602579
 30
0.0
1001
AVE_RENDER
1002
{
1070
     0
1000
Full Opt
1070
     0
1070
     1
1070
     1
1070
     1
1070
     0
1070
     0
1070
     0
1070
     1
1070
     1
1040
0.0001
1040
0.0001
1002
}
  0
INSERT
  5
309D0
  8
ASHADE
 62
     4
  2
AVE_RENDER
 10
550.675697
 20
201.602579
 30
0.0
1001
AVE_RENDER
1002
{
1070
     0
1000
Quick Opt
1070
     0
1070
     1
1070
     1
1070
     1
1070
     1
1070
     0
1070
     1
1002
}
  0
INSERT
  5
309D4
  8
05
  2
NT_1
 10
649.385038
 20
349.44323
 30
0.0
 41
32.617
 42
-6.863009
 43
32.617
  0
INSERT
  5
34CF6
  8
025
  2
ACAD
 10
244.824194
 20
199.991892
 30
0.0
  0
INSERT
  5
397FA
  8
ASHADE
 62
     1
  2
AVE_RENDER
 10
541.824194
 20
199.991892
 30
0.0
1001
AVE_RENDER
1002
{
1070
     2
1000
Pref
1070
    40
1070
    20
1070
     1
1070
     0
1000

1070
    10
1070
     0
1070
    30
1040
1.0
1070
     1
1040
0.3
1040
0.7
1040
0.0
1040
10.0
1010
-1.0
1020
-1.0
1030
-1.0
1040
0.3
1070
    49
1002
}
  0
INSERT
  5
397FB
  8
ASHADE
 62
     3
  2
AVE_RENDER
 10
541.824194
 20
199.991892
 30
0.0
1001
AVE_RENDER
1002
{
1070
     0
1000
Full Opt
1070
     0
1070
     1
1070
     1
1070
     1
1070
     0
1070
     0
1070
     0
1070
     1
1070
     1
1040
0.0001
1040
0.0001
1002
}
  0
INSERT
  5
397FC
  8
ASHADE
 62
     4
  2
AVE_RENDER
 10
541.824194
 20
199.991892
 30
0.0
1001
AVE_RENDER
1002
{
1070
     0
1000
Quick Opt
1070
     0
1070
     1
1070
     1
1070
     1
1070
     1
1070
     0
1070
     1
1002
}
  0
INSERT
  5
39800
  8
05
  2
NT_1
 10
640.533535
 20
347.832544
 30
0.0
 41
32.617
 42
-6.863009
 43
32.617
  0
INSERT
  5
3C013
  8
ASHADE
 62
     1
  2
AVE_RENDER
 10
847.675697
 20
201.602579
 30
0.0
1001
AVE_RENDER
1002
{
1070
     2
1000
Pref
1070
    40
1070
    20
1070
     1
1070
     0
1000

1070
    10
1070
     0
1070
    30
1040
1.0
1070
     1
1040
0.3
1040
0.7
1040
0.0
1040
10.0
1010
-1.0
1020
-1.0
1030
-1.0
1040
0.3
1070
    49
1002
}
  0
INSERT
  5
3C014
  8
ASHADE
 62
     3
  2
AVE_RENDER
 10
847.675697
 20
201.602579
 30
0.0
1001
AVE_RENDER
1002
{
1070
     0
1000
Full Opt
1070
     0
1070
     1
1070
     1
1070
     1
1070
     0
1070
     0
1070
     0
1070
     1
1070
     1
1040
0.0001
1040
0.0001
1002
}
  0
INSERT
  5
3C015
  8
ASHADE
 62
     4
  2
AVE_RENDER
 10
847.675697
 20
201.602579
 30
0.0
1001
AVE_RENDER
1002
{
1070
     0
1000
Quick Opt
1070
     0
1070
     1
1070
     1
1070
     1
1070
     1
1070
     0
1070
     1
1002
}
  0
INSERT
  5
3C019
  8
05
  2
NT_1
 10
946.385038
 20
349.44323
 30
0.0
 41
32.617
 42
-6.863009
 43
32.617
  0
INSERT
  5
4033B
  8
025
  2
ACAD
 10
541.824194
 20
199.991892
 30
0.0
  0
INSERT
  5
46838
  8
ASHADE
 62
     1
  2
AVE_RENDER
 10
246.400491
 20
209.836093
 30
0.0
1001
AVE_RENDER
1002
{
1070
     2
1000
Pref
1070
    40
1070
    20
1070
     1
1070
     0
1000

1070
    10
1070
     0
1070
    30
1040
1.0
1070
     1
1040
0.3
1040
0.7
1040
0.0
1040
10.0
1010
-1.0
1020
-1.0
1030
-1.0
1040
0.3
1070
    49
1002
}
  0
INSERT
  5
46839
  8
ASHADE
 62
     3
  2
AVE_RENDER
 10
246.400491
 20
209.836093
 30
0.0
1001
AVE_RENDER
1002
{
1070
     0
1000
Full Opt
1070
     0
1070
     1
1070
     1
1070
     1
1070
     0
1070
     0
1070
     0
1070
     1
1070
     1
1040
0.0001
1040
0.0001
1002
}
  0
INSERT
  5
4683A
  8
ASHADE
 62
     4
  2
AVE_RENDER
 10
246.400491
 20
209.836093
 30
0.0
1001
AVE_RENDER
1002
{
1070
     0
1000
Quick Opt
1070
     0
1070
     1
1070
     1
1070
     1
1070
     1
1070
     0
1070
     1
1002
}
  0
INSERT
  5
4683E
  8
05
  2
NT_1
 10
345.109832
 20
357.676744
 30
0.0
 41
32.617
 42
-6.863009
 43
32.617
  0
INSERT
  5
49CC2
  8
05
  2
ACAD
 10
246.400491
 20
209.836093
 30
0.0
  0
INSERT
  5
A6093
  8
ASHADE
 62
     1
  2
AVE_RENDER
 10
246.400491
 20
419.836093
 30
0.0
1001
AVE_RENDER
1002
{
1070
     2
1000
Pref
1070
    40
1070
    20
1070
     1
1070
     0
1000

1070
    10
1070
     0
1070
    30
1040
1.0
1070
     1
1040
0.3
1040
0.7
1040
0.0
1040
10.0
1010
-1.0
1020
-1.0
1030
-1.0
1040
0.3
1070
    49
1002
}
  0
INSERT
  5
A6094
  8
ASHADE
 62
     3
  2
AVE_RENDER
 10
246.400491
 20
419.836093
 30
0.0
1001
AVE_RENDER
1002
{
1070
     0
1000
Full Opt
1070
     0
1070
     1
1070
     1
1070
     1
1070
     0
1070
     0
1070
     0
1070
     1
1070
     1
1040
0.0001
1040
0.0001
1002
}
  0
INSERT
  5
A6095
  8
ASHADE
 62
     4
  2
AVE_RENDER
 10
246.400491
 20
419.836093
 30
0.0
1001
AVE_RENDER
1002
{
1070
     0
1000
Quick Opt
1070
     0
1070
     1
1070
     1
1070
     1
1070
     1
1070
     0
1070
     1
1002
}
  0
INSERT
  5
A6096
  8
05
  2
NT_1
 10
345.109832
 20
567.676744
 30
0.0
 41
32.617
 42
-6.863009
 43
32.617
  0
INSERT
  5
A627D
  8
05
  2
ACAD
 10
246.400491
 20
419.836093
 30
0.0
  0
INSERT
  5
A6356
  8
ASHADE
 62
     1
  2
AVE_RENDER
 10
543.400491
 20
419.836093
 30
0.0
1001
AVE_RENDER
1002
{
1070
     2
1000
Pref
1070
    40
1070
    20
1070
     1
1070
     0
1000

1070
    10
1070
     0
1070
    30
1040
1.0
1070
     1
1040
0.3
1040
0.7
1040
0.0
1040
10.0
1010
-1.0
1020
-1.0
1030
-1.0
1040
0.3
1070
    49
1002
}
  0
INSERT
  5
A6357
  8
ASHADE
 62
     3
  2
AVE_RENDER
 10
543.400491
 20
419.836093
 30
0.0
1001
AVE_RENDER
1002
{
1070
     0
1000
Full Opt
1070
     0
1070
     1
1070
     1
1070
     1
1070
     0
1070
     0
1070
     0
1070
     1
1070
     1
1040
0.0001
1040
0.0001
1002
}
  0
INSERT
  5
A6358
  8
ASHADE
 62
     4
  2
AVE_RENDER
 10
543.400491
 20
419.836093
 30
0.0
1001
AVE_RENDER
1002
{
1070
     0
1000
Quick Opt
1070
     0
1070
     1
1070
     1
1070
     1
1070
     1
1070
     0
1070
     1
1002
}
  0
INSERT
  5
A6359
  8
05
  2
NT_1
 10
642.109832
 20
567.676744
 30
0.0
 41
32.617
 42
-6.863009
 43
32.617
  0
INSERT
  5
A635A
  8
05
  2
ACAD
 10
543.400491
 20
419.836093
 30
0.0
  0
INSERT
  5
A635B
  8
ASHADE
 62
     1
  2
AVE_RENDER
 10
543.400491
 20
419.836093
 30
0.0
1001
AVE_RENDER
1002
{
1070
     2
1000
Pref
1070
    40
1070
    20
1070
     1
1070
     0
1000

1070
    10
1070
     0
1070
    30
1040
1.0
1070
     1
1040
0.3
1040
0.7
1040
0.0
1040
10.0
1010
-1.0
1020
-1.0
1030
-1.0
1040
0.3
1070
    49
1002
}
  0
INSERT
  5
A635C
  8
ASHADE
 62
     3
  2
AVE_RENDER
 10
543.400491
 20
419.836093
 30
0.0
1001
AVE_RENDER
1002
{
1070
     0
1000
Full Opt
1070
     0
1070
     1
1070
     1
1070
     1
1070
     0
1070
     0
1070
     0
1070
     1
1070
     1
1040
0.0001
1040
0.0001
1002
}
  0
INSERT
  5
A635D
  8
ASHADE
 62
     4
  2
AVE_RENDER
 10
543.400491
 20
419.836093
 30
0.0
1001
AVE_RENDER
1002
{
1070
     0
1000
Quick Opt
1070
     0
1070
     1
1070
     1
1070
     1
1070
     1
1070
     0
1070
     1
1002
}
  0
INSERT
  5
A635E
  8
05
  2
NT_1
 10
642.109832
 20
567.676744
 30
0.0
 41
32.617
 42
-6.863009
 43
32.617
  0
INSERT
  5
A6366
  8
05
  2
ACAD
 10
543.400491
 20
419.836093
 30
0.0
  0
INSERT
  5
A63C1
  8
ASHADE
 62
     1
  2
AVE_RENDER
 10
562.504165
 20
417.847419
 30
0.0
1001
AVE_RENDER
1002
{
1070
     2
1000
Pref
1070
    40
1070
    20
1070
     1
1070
     0
1000

1070
    10
1070
     0
1070
    30
1040
1.0
1070
     1
1040
0.3
1040
0.7
1040
0.0
1040
10.0
1010
-1.0
1020
-1.0
1030
-1.0
1040
0.3
1070
    49
1002
}
  0
INSERT
  5
A63C2
  8
ASHADE
 62
     3
  2
AVE_RENDER
 10
562.504165
 20
417.847419
 30
0.0
1001
AVE_RENDER
1002
{
1070
     0
1000
Full Opt
1070
     0
1070
     1
1070
     1
1070
     1
1070
     0
1070
     0
1070
     0
1070
     1
1070
     1
1040
0.0001
1040
0.0001
1002
}
  0
INSERT
  5
A63C3
  8
ASHADE
 62
     4
  2
AVE_RENDER
 10
562.504165
 20
417.847419
 30
0.0
1001
AVE_RENDER
1002
{
1070
     0
1000
Quick Opt
1070
     0
1070
     1
1070
     1
1070
     1
1070
     1
1070
     0
1070
     1
1002
}
  0
INSERT
  5
A63C4
  8
05
  2
NT_1
 10
661.213507
 20
565.688071
 30
0.0
 41
32.617
 42
-6.863009
 43
32.617
  0
INSERT
  5
A63F3
  8
05
  2
ACAD
 10
562.504165
 20
417.847419
 30
0.0
  0
TEXT
  5
A645C
  8
035
 10
1065.919528
 20
886.442792
 30
0.0
 40
3.5
  1
  
 41
0.7
 51
15.0
  0
INSERT
  5
A6463
  8
ASHADE
 62
     1
  2
AVE_RENDER
 10
543.400491
 20
419.836093
 30
0.0
1001
AVE_RENDER
1002
{
1070
     2
1000
Pref
1070
    40
1070
    20
1070
     1
1070
     0
1000

1070
    10
1070
     0
1070
    30
1040
1.0
1070
     1
1040
0.3
1040
0.7
1040
0.0
1040
10.0
1010
-1.0
1020
-1.0
1030
-1.0
1040
0.3
1070
    49
1002
}
  0
INSERT
  5
A6464
  8
ASHADE
 62
     3
  2
AVE_RENDER
 10
543.400491
 20
419.836093
 30
0.0
1001
AVE_RENDER
1002
{
1070
     0
1000
Full Opt
1070
     0
1070
     1
1070
     1
1070
     1
1070
     0
1070
     0
1070
     0
1070
     1
1070
     1
1040
0.0001
1040
0.0001
1002
}
  0
INSERT
  5
A6465
  8
ASHADE
 62
     4
  2
AVE_RENDER
 10
543.400491
 20
419.836093
 30
0.0
1001
AVE_RENDER
1002
{
1070
     0
1000
Quick Opt
1070
     0
1070
     1
1070
     1
1070
     1
1070
     1
1070
     0
1070
     1
1002
}
  0
INSERT
  5
A6466
  8
05
  2
NT_1
 10
642.109832
 20
567.676744
 30
0.0
 41
32.617
 42
-6.863009
 43
32.617
  0
INSERT
  5
A6652
  8
05
  2
ACAD
 10
543.400491
 20
419.836093
 30
0.0
  0
INSERT
  5
A6797
  8
ASHADE
 62
     1
  2
AVE_RENDER
 10
840.400491
 20
419.836093
 30
0.0
1001
AVE_RENDER
1002
{
1070
     2
1000
Pref
1070
    40
1070
    20
1070
     1
1070
     0
1000

1070
    10
1070
     0
1070
    30
1040
1.0
1070
     1
1040
0.3
1040
0.7
1040
0.0
1040
10.0
1010
-1.0
1020
-1.0
1030
-1.0
1040
0.3
1070
    49
1002
}
  0
INSERT
  5
A6798
  8
ASHADE
 62
     3
  2
AVE_RENDER
 10
840.400491
 20
419.836093
 30
0.0
1001
AVE_RENDER
1002
{
1070
     0
1000
Full Opt
1070
     0
1070
     1
1070
     1
1070
     1
1070
     0
1070
     0
1070
     0
1070
     1
1070
     1
1040
0.0001
1040
0.0001
1002
}
  0
INSERT
  5
A6799
  8
ASHADE
 62
     4
  2
AVE_RENDER
 10
840.400491
 20
419.836093
 30
0.0
1001
AVE_RENDER
1002
{
1070
     0
1000
Quick Opt
1070
     0
1070
     1
1070
     1
1070
     1
1070
     1
1070
     0
1070
     1
1002
}
  0
INSERT
  5
A679A
  8
05
  2
NT_1
 10
939.109832
 20
567.676744
 30
0.0
 41
32.617
 42
-6.863009
 43
32.617
  0
INSERT
  5
A67B9
  8
05
  2
ACAD
 10
840.400491
 20
419.836093
 30
0.0
  0
INSERT
  5
A67C1
  8
ASHADE
 62
     1
  2
AVE_RENDER
 10
840.400491
 20
419.836093
 30
0.0
1001
AVE_RENDER
1002
{
1070
     2
1000
Pref
1070
    40
1070
    20
1070
     1
1070
     0
1000

1070
    10
1070
     0
1070
    30
1040
1.0
1070
     1
1040
0.3
1040
0.7
1040
0.0
1040
10.0
1010
-1.0
1020
-1.0
1030
-1.0
1040
0.3
1070
    49
1002
}
  0
INSERT
  5
A67C2
  8
ASHADE
 62
     3
  2
AVE_RENDER
 10
840.400491
 20
419.836093
 30
0.0
1001
AVE_RENDER
1002
{
1070
     0
1000
Full Opt
1070
     0
1070
     1
1070
     1
1070
     1
1070
     0
1070
     0
1070
     0
1070
     1
1070
     1
1040
0.0001
1040
0.0001
1002
}
  0
INSERT
  5
A67C3
  8
ASHADE
 62
     4
  2
AVE_RENDER
 10
840.400491
 20
419.836093
 30
0.0
1001
AVE_RENDER
1002
{
1070
     0
1000
Quick Opt
1070
     0
1070
     1
1070
     1
1070
     1
1070
     1
1070
     0
1070
     1
1002
}
  0
INSERT
  5
A67C4
  8
05
  2
NT_1
 10
939.109832
 20
567.676744
 30
0.0
 41
32.617
 42
-6.863009
 43
32.617
  0
INSERT
  5
A67CC
  8
05
  2
ACAD
 10
840.400491
 20
419.836093
 30
0.0
  0
INSERT
  5
A682D
  8
ASHADE
 62
     1
  2
AVE_RENDER
 10
543.400491
 20
209.836093
 30
0.0
1001
AVE_RENDER
1002
{
1070
     2
1000
Pref
1070
    40
1070
    20
1070
     1
1070
     0
1000

1070
    10
1070
     0
1070
    30
1040
1.0
1070
     1
1040
0.3
1040
0.7
1040
0.0
1040
10.0
1010
-1.0
1020
-1.0
1030
-1.0
1040
0.3
1070
    49
1002
}
  0
INSERT
  5
A682E
  8
ASHADE
 62
     3
  2
AVE_RENDER
 10
543.400491
 20
209.836093
 30
0.0
1001
AVE_RENDER
1002
{
1070
     0
1000
Full Opt
1070
     0
1070
     1
1070
     1
1070
     1
1070
     0
1070
     0
1070
     0
1070
     1
1070
     1
1040
0.0001
1040
0.0001
1002
}
  0
INSERT
  5
A682F
  8
ASHADE
 62
     4
  2
AVE_RENDER
 10
543.400491
 20
209.836093
 30
0.0
1001
AVE_RENDER
1002
{
1070
     0
1000
Quick Opt
1070
     0
1070
     1
1070
     1
1070
     1
1070
     1
1070
     0
1070
     1
1002
}
  0
INSERT
  5
A6830
  8
05
  2
NT_1
 10
642.109832
 20
357.676744
 30
0.0
 41
32.617
 42
-6.863009
 43
32.617
  0
INSERT
  5
A6AAF
  8
05
  2
ACAD
 10
543.400491
 20
209.836093
 30
0.0
  0
INSERT
  5
A6BA6
  8
ASHADE
 62
     1
  2
AVE_RENDER
 10
442.437802
 20
192.150661
 30
0.0
1001
AVE_RENDER
1002
{
1070
     2
1000
Pref
1070
    40
1070
    20
1070
     1
1070
     0
1000

1070
    10
1070
     0
1070
    30
1040
1.0
1070
     1
1040
0.3
1040
0.7
1040
0.0
1040
10.0
1010
-1.0
1020
-1.0
1030
-1.0
1040
0.3
1070
    49
1002
}
  0
INSERT
  5
A6BA7
  8
ASHADE
 62
     3
  2
AVE_RENDER
 10
442.437802
 20
192.150661
 30
0.0
1001
AVE_RENDER
1002
{
1070
     0
1000
Full Opt
1070
     0
1070
     1
1070
     1
1070
     1
1070
     0
1070
     0
1070
     0
1070
     1
1070
     1
1040
0.0001
1040
0.0001
1002
}
  0
INSERT
  5
A6BA8
  8
ASHADE
 62
     4
  2
AVE_RENDER
 10
442.437802
 20
192.150661
 30
0.0
1001
AVE_RENDER
1002
{
1070
     0
1000
Quick Opt
1070
     0
1070
     1
1070
     1
1070
     1
1070
     1
1070
     0
1070
     1
1002
}
  0
INSERT
  5
A6BAC
  8
05
  2
NT_1
 10
541.147144
 20
339.991313
 30
0.0
 41
32.617
 42
-6.863009
 43
32.617
  0
INSERT
  5
AA030
  8
05
  2
ACAD
 10
442.437802
 20
192.150661
 30
0.0
  0
INSERT
  5
B323C
  8
ASHADE
 62
     1
  2
AVE_RENDER
 10
739.437802
 20
192.150661
 30
0.0
1001
AVE_RENDER
1002
{
1070
     2
1000
Pref
1070
    40
1070
    20
1070
     1
1070
     0
1000

1070
    10
1070
     0
1070
    30
1040
1.0
1070
     1
1040
0.3
1040
0.7
1040
0.0
1040
10.0
1010
-1.0
1020
-1.0
1030
-1.0
1040
0.3
1070
    49
1002
}
  0
INSERT
  5
B323D
  8
ASHADE
 62
     3
  2
AVE_RENDER
 10
739.437802
 20
192.150661
 30
0.0
1001
AVE_RENDER
1002
{
1070
     0
1000
Full Opt
1070
     0
1070
     1
1070
     1
1070
     1
1070
     0
1070
     0
1070
     0
1070
     1
1070
     1
1040
0.0001
1040
0.0001
1002
}
  0
INSERT
  5
B323E
  8
ASHADE
 62
     4
  2
AVE_RENDER
 10
739.437802
 20
192.150661
 30
0.0
1001
AVE_RENDER
1002
{
1070
     0
1000
Quick Opt
1070
     0
1070
     1
1070
     1
1070
     1
1070
     1
1070
     0
1070
     1
1002
}
  0
INSERT
  5
B323F
  8
05
  2
NT_1
 10
838.147144
 20
339.991313
 30
0.0
 41
32.617
 42
-6.863009
 43
32.617
  0
INSERT
  5
B3525
  8
05
  2
ACAD
 10
739.437802
 20
192.150661
 30
0.0
  0
INSERT
  5
B35C3
  8
ASHADE
 62
     1
  2
AVE_RENDER
 10
739.437802
 20
192.150661
 30
0.0
1001
AVE_RENDER
1002
{
1070
     2
1000
Pref
1070
    40
1070
    20
1070
     1
1070
     0
1000

1070
    10
1070
     0
1070
    30
1040
1.0
1070
     1
1040
0.3
1040
0.7
1040
0.0
1040
10.0
1010
-1.0
1020
-1.0
1030
-1.0
1040
0.3
1070
    49
1002
}
  0
INSERT
  5
B35C4
  8
ASHADE
 62
     3
  2
AVE_RENDER
 10
739.437802
 20
192.150661
 30
0.0
1001
AVE_RENDER
1002
{
1070
     0
1000
Full Opt
1070
     0
1070
     1
1070
     1
1070
     1
1070
     0
1070
     0
1070
     0
1070
     1
1070
     1
1040
0.0001
1040
0.0001
1002
}
  0
INSERT
  5
B35C5
  8
ASHADE
 62
     4
  2
AVE_RENDER
 10
739.437802
 20
192.150661
 30
0.0
1001
AVE_RENDER
1002
{
1070
     0
1000
Quick Opt
1070
     0
1070
     1
1070
     1
1070
     1
1070
     1
1070
     0
1070
     1
1002
}
  0
INSERT
  5
B35C6
  8
05
  2
NT_1
 10
838.147144
 20
339.991313
 30
0.0
 41
32.617
 42
-6.863009
 43
32.617
  0
INSERT
  5
B38AC
  8
05
  2
ACAD
 10
739.437802
 20
192.150661
 30
0.0
  0
INSERT
  5
B39E5
  8
ASHADE
 62
     1
  2
AVE_RENDER
 10
758.541477
 20
190.161988
 30
0.0
1001
AVE_RENDER
1002
{
1070
     2
1000
Pref
1070
    40
1070
    20
1070
     1
1070
     0
1000

1070
    10
1070
     0
1070
    30
1040
1.0
1070
     1
1040
0.3
1040
0.7
1040
0.0
1040
10.0
1010
-1.0
1020
-1.0
1030
-1.0
1040
0.3
1070
    49
1002
}
  0
INSERT
  5
B39E6
  8
ASHADE
 62
     3
  2
AVE_RENDER
 10
758.541477
 20
190.161988
 30
0.0
1001
AVE_RENDER
1002
{
1070
     0
1000
Full Opt
1070
     0
1070
     1
1070
     1
1070
     1
1070
     0
1070
     0
1070
     0
1070
     1
1070
     1
1040
0.0001
1040
0.0001
1002
}
  0
INSERT
  5
B39E7
  8
ASHADE
 62
     4
  2
AVE_RENDER
 10
758.541477
 20
190.161988
 30
0.0
1001
AVE_RENDER
1002
{
1070
     0
1000
Quick Opt
1070
     0
1070
     1
1070
     1
1070
     1
1070
     1
1070
     0
1070
     1
1002
}
  0
INSERT
  5
B39EB
  8
05
  2
NT_1
 10
857.250818
 20
338.002639
 30
0.0
 41
32.617
 42
-6.863009
 43
32.617
  0
INSERT
  5
B6E6F
  8
05
  2
ACAD
 10
758.541477
 20
190.161988
 30
0.0
  0
POLYLINE
  5
C890B
  8
RAHMEN
 66
     1
 10
0.0
 20
0.0
 30
0.0
 70
     1
  0
VERTEX
  5
C94F0
  8
RAHMEN
 10
205.0
 20
5.0
 30
0.0
  0
VERTEX
  5
C94F1
  8
RAHMEN
 10
205.0
 20
292.0
 30
0.0
  0
VERTEX
  5
C94F2
  8
RAHMEN
 10
5.0
 20
292.0
 30
0.0
  0
VERTEX
  5
C94F3
  8
RAHMEN
 10
5.0
 20
5.0
 30
0.0
  0
SEQEND
  5
C94F4
  8
RAHMEN
  0
POLYLINE
  5
C890C
  8
RAHMEN
 62
     7
 66
     1
 10
0.0
 20
0.0
 30
0.0
  0
VERTEX
  5
C94F5
  8
RAHMEN
 62
     7
 10
210.0
 20
0.0
 30
0.0
  0
VERTEX
  5
C94F6
  8
RAHMEN
 62
     7
 10
210.0
 20
297.0
 30
0.0
  0
VERTEX
  5
C94F7
  8
RAHMEN
 62
     7
 10
0.0
 20
297.0
 30
0.0
  0
VERTEX
  5
C94F8
  8
RAHMEN
 62
     7
 10
0.0
 20
0.0
 30
0.0
  0
VERTEX
  5
C94F9
  8
RAHMEN
 62
     7
 10
210.0
 20
0.0
 30
0.0
  0
SEQEND
  5
C94FA
  8
RAHMEN
 62
     7
  0
LINE
  5
C8F4D
  8
05
 10
126.539334
 20
202.119181
 30
0.0
 11
126.11127
 21
204.417764
 31
0.0
  0
POLYLINE
  5
C8F4F
  8
05
 66
     1
 10
0.0
 20
0.0
 30
0.0
  0
VERTEX
  5
C94FB
  8
05
 10
133.537126
 20
207.404344
 30
0.0
  0
VERTEX
  5
C94FC
  8
05
 10
133.537126
 20
203.616974
 30
0.0
 42
-1.0
  0
VERTEX
  5
C94FD
  8
05
 10
130.541541
 20
203.616974
 30
0.0
  0
VERTEX
  5
C94FE
  8
05
 10
130.541541
 20
207.404344
 30
0.0
 42
0.414214
  0
SEQEND
  5
C94FF
  8
05
  0
LINE
  5
C8F51
  8
05
 10
73.219198
 20
202.119181
 30
0.0
 11
72.791134
 21
204.417764
 31
0.0
  0
POLYLINE
  5
C8F52
  8
05
 66
     1
 10
0.0
 20
0.0
 30
0.0
 70
     1
  0
VERTEX
  5
C9500
  8
05
 10
73.219198
 20
218.604344
 30
0.0
 42
-0.414214
  0
VERTEX
  5
C9501
  8
05
 10
74.019198
 20
219.404344
 30
0.0
  0
VERTEX
  5
C9502
  8
05
 10
77.133184
 20
219.404344
 30
0.0
 42
-0.182062
  0
VERTEX
  5
C9503
  8
05
 10
77.792838
 20
219.155914
 30
0.0
  0
VERTEX
  5
C9504
  8
05
 10
79.878852
 20
217.325015
 30
0.0
 42
-0.215872
  0
VERTEX
  5
C9505
  8
05
 10
80.219198
 20
216.573446
 30
0.0
  0
VERTEX
  5
C9506
  8
05
 10
80.219198
 20
203.616974
 30
0.0
 42
-1.0
  0
VERTEX
  5
C9507
  8
05
 10
77.223612
 20
203.616974
 30
0.0
  0
VERTEX
  5
C9508
  8
05
 10
77.223612
 20
206.604344
 30
0.0
 42
0.414214
  0
VERTEX
  5
C9509
  8
05
 10
76.423612
 20
207.404344
 30
0.0
  0
VERTEX
  5
C950A
  8
05
 10
73.219198
 20
207.404344
 30
0.0
  0
SEQEND
  5
C950B
  8
05
  0
TEXT
  5
C8F53
  8
BEM1
 62
     3
 10
92.374211
 20
184.652279
 30
0.0
 40
3.333333
  1
6.7
 50
90.0
 41
0.7
 51
15.0
 72
     1
 11
90.707544
 21
186.985613
 31
0.0
 73
     2
  0
LINE
  5
C8F54
  8
BEM1
 10
93.397977
 20
183.617932
 30
0.0
 11
93.397977
 21
218.297608
 31
0.0
  0
POLYLINE
  5
C8F55
  8
035
 66
     1
 10
0.0
 20
0.0
 30
0.0
  0
VERTEX
  5
C950C
  8
035
 10
78.9224
 20
202.132729
 30
0.0
  0
VERTEX
  5
C950D
  8
035
 10
78.9224
 20
199.645522
 30
0.0
  0
VERTEX
  5
C950E
  8
035
 10
78.52041
 20
199.645522
 30
0.0
  0
VERTEX
  5
C950F
  8
035
 10
78.52041
 20
202.132729
 30
0.0
  0
SEQEND
  5
C9510
  8
035
  0
LINE
  5
C8F56
  8
05
 10
73.219198
 20
202.119181
 30
0.0
 11
73.710747
 21
202.210722
 31
0.0
  0
POLYLINE
  5
C8F57
  8
035
 66
     1
 10
0.0
 20
0.0
 30
0.0
  0
VERTEX
  5
C9511
  8
035
 10
132.639334
 20
202.24461
 30
0.0
  0
VERTEX
  5
C9512
  8
035
 10
132.639334
 20
199.645522
 30
0.0
  0
VERTEX
  5
C9513
  8
035
 10
131.439334
 20
199.645522
 30
0.0
  0
VERTEX
  5
C9514
  8
035
 10
131.439334
 20
202.24461
 30
0.0
  0
SEQEND
  5
C9515
  8
035
  0
LINE
  5
C8F59
  8
05
 10
126.539334
 20
202.119181
 30
0.0
 11
127.030882
 21
202.210722
 31
0.0
  0
SOLID
  5
C8F5A
  8
BEM1
 10
100.515599
 20
216.196011
 30
0.0
 11
101.585043
 21
216.196011
 31
0.0
 12
101.050321
 22
219.404344
 32
0.0
 13
101.050321
 23
219.404344
 33
0.0
  0
SOLID
  5
C8F5B
  8
BEM1
 10
100.515599
 20
210.612678
 30
0.0
 11
101.585043
 21
210.612678
 31
0.0
 12
101.050321
 22
207.404344
 32
0.0
 13
101.050321
 23
207.404344
 33
0.0
  0
SOLID
  5
C8F5C
  8
BEM1
 10
92.863255
 20
217.312678
 30
0.0
 11
93.932699
 21
217.312678
 31
0.0
 12
93.397977
 22
214.104344
 32
0.0
 13
93.397977
 23
214.104344
 33
0.0
  0
SOLID
  5
C8F5D
  8
BEM1
 10
92.863255
 20
204.196011
 30
0.0
 11
93.932699
 21
204.196011
 31
0.0
 12
93.397977
 22
207.404344
 32
0.0
 13
93.397977
 23
207.404344
 33
0.0
  0
SOLID
  5
C8F5E
  8
BEM1
 10
70.010864
 20
228.294525
 30
0.0
 11
70.010864
 21
229.36397
 31
0.0
 12
73.219198
 22
228.829248
 32
0.0
 13
73.219198
 23
228.829248
 33
0.0
  0
SOLID
  5
C8F5F
  8
BEM1
 10
83.427531
 20
228.294525
 30
0.0
 11
83.427531
 21
229.36397
 31
0.0
 12
80.219198
 22
228.829248
 32
0.0
 13
80.219198
 23
228.829248
 33
0.0
  0
LINE
  5
C8F60
  8
BEM1
 10
81.134284
 20
214.104344
 30
0.0
 11
94.017722
 21
214.104344
 31
0.0
  0
LINE
  5
C8F61
  8
BEM1
 10
73.219198
 20
229.744538
 30
0.0
 11
73.219198
 21
219.929937
 31
0.0
  0
LINE
  5
C8F62
  8
BEM1
 10
80.219198
 20
218.248896
 30
0.0
 11
80.219198
 21
229.203133
 31
0.0
  0
LINE
  5
C8F63
  8
BEM1
 10
81.056999
 20
207.404344
 30
0.0
 11
101.620727
 21
207.404344
 31
0.0
  0
LINE
  5
C8F64
  8
BEM1
 10
78.512473
 20
219.404344
 30
0.0
 11
79.833913
 21
219.404344
 31
0.0
  0
TEXT
  5
C8F65
  8
BEM1
 62
     3
 10
83.916961
 20
230.087097
 30
0.0
 40
3.333333
  1
7.0
 41
0.7
 51
15.0
 72
     1
 11
86.055849
 21
231.753764
 31
0.0
 73
     2
  0
LINE
  5
C8F66
  8
BEM1
 10
101.602169
 20
228.829248
 30
0.0
 11
68.457822
 21
228.829248
 31
0.0
  0
ARC
  5
C8F68
  8
05
 10
73.774231
 20
204.600846
 30
0.0
 40
1.0
 50
170.716998
 51
190.54932
  0
LINE
  5
C8F6A
  8
05
 10
73.219198
 20
207.404344
 30
0.0
 11
72.787328
 21
204.762157
 31
0.0
  0
TEXT
  5
C8F6B
  8
BEM1
 62
     3
 10
99.525512
 20
183.736791
 30
0.0
 40
3.333333
  1
12.0
 50
90.0
 41
0.7
 51
15.0
 72
     1
 11
97.858845
 21
186.653458
 31
0.0
 73
     2
  0
LINE
  5
C8F6C
  8
BEM1
 10
101.050321
 20
183.813633
 30
0.0
 11
101.050321
 21
218.766393
 31
0.0
  0
POLYLINE
  5
C8F6D
  8
05
 66
     1
 10
0.0
 20
0.0
 30
0.0
  0
VERTEX
  5
C9516
  8
05
 10
73.219198
 20
218.228876
 30
0.0
  0
VERTEX
  5
C9517
  8
05
 10
72.822315
 20
218.228876
 30
0.0
 42
0.414214
  0
VERTEX
  5
C9518
  8
05
 10
72.262315
 20
217.668876
 30
0.0
  0
VERTEX
  5
C9519
  8
05
 10
72.262315
 20
210.539812
 30
0.0
 42
0.414214
  0
VERTEX
  5
C951A
  8
05
 10
72.822315
 20
209.979812
 30
0.0
  0
VERTEX
  5
C951B
  8
05
 10
73.219198
 20
209.979812
 30
0.0
  0
SEQEND
  5
C951C
  8
05
  0
POLYLINE
  5
C8F6E
  8
05
 66
     1
 10
0.0
 20
0.0
 30
0.0
  0
VERTEX
  5
C951D
  8
05
 10
72.262315
 20
217.453777
 30
0.0
  0
VERTEX
  5
C951E
  8
05
 10
67.678187
 20
217.453777
 30
0.0
 42
0.414214
  0
VERTEX
  5
C951F
  8
05
 10
66.878187
 20
216.653777
 30
0.0
  0
VERTEX
  5
C9520
  8
05
 10
66.878187
 20
211.554911
 30
0.0
 42
0.414214
  0
VERTEX
  5
C9521
  8
05
 10
67.678187
 20
210.754911
 30
0.0
  0
VERTEX
  5
C9522
  8
05
 10
72.262315
 20
210.754911
 30
0.0
  0
SEQEND
  5
C9523
  8
05
  0
LINE
  5
C8F6F
  8
MITTE
 10
66.041744
 20
214.104344
 30
0.0
 11
76.832011
 21
214.104344
 31
0.0
  0
SOLID
  5
C8F70
  8
BEM1
 10
123.331
 20
236.66723
 30
0.0
 11
123.331
 21
235.597785
 31
0.0
 12
126.539334
 22
236.132508
 32
0.0
 13
126.539334
 23
236.132508
 33
0.0
  0
SOLID
  5
C8F71
  8
BEM1
 10
140.747667
 20
236.66723
 30
0.0
 11
140.747667
 21
235.597785
 31
0.0
 12
137.539334
 22
236.132508
 32
0.0
 13
137.539334
 23
236.132508
 33
0.0
  0
LINE
  5
C8F72
  8
BEM1
 10
126.539334
 20
236.57908
 30
0.0
 11
126.539334
 21
220.388476
 31
0.0
  0
LINE
  5
C8F73
  8
BEM1
 10
137.539334
 20
236.555033
 30
0.0
 11
137.539334
 21
220.258661
 31
0.0
  0
LINE
  5
C8F78
  8
05
 10
126.539334
 20
207.404344
 30
0.0
 11
126.107464
 21
204.762157
 31
0.0
  0
ARC
  5
C8F79
  8
05
 10
127.094367
 20
204.600846
 30
0.0
 40
1.0
 50
170.716998
 51
190.54932
  0
LINE
  5
C8F7C
  8
MITTE
 10
132.039334
 20
219.053783
 30
0.0
 11
132.039334
 21
198.639908
 31
0.0
  0
LINE
  5
C8F7D
  8
MITTE
 10
127.089895
 20
214.104344
 30
0.0
 11
136.988772
 21
214.104344
 31
0.0
  0
CIRCLE
  5
C8F7E
  8
05
 10
132.039334
 20
214.104344
 30
0.0
 40
1.6
  0
CIRCLE
  5
C8F7F
  8
05
 10
132.039334
 20
214.104344
 30
0.0
 40
3.349433
  0
CIRCLE
  5
C8F80
  8
05
 10
132.039334
 20
214.104344
 30
0.0
 40
4.124532
  0
TEXT
  5
C8F81
  8
BEM1
 62
     3
 10
122.587558
 20
238.160996
 30
0.0
 40
3.333333
  1
11.2
 41
0.7
 51
15.0
 72
     1
 11
125.30978
 21
239.827663
 31
0.0
 73
     2
  0
LINE
  5
C8F82
  8
BEM1
 10
121.314334
 20
236.132508
 30
0.0
 11
142.764334
 21
236.132508
 31
0.0
  0
POLYLINE
  5
C8F83
  8
05
 66
     1
 10
0.0
 20
0.0
 30
0.0
 70
     1
  0
VERTEX
  5
C9524
  8
05
 10
126.539334
 20
207.404344
 30
0.0
  0
VERTEX
  5
C9525
  8
05
 10
126.539334
 20
218.404344
 30
0.0
 42
-0.414214
  0
VERTEX
  5
C9526
  8
05
 10
127.539334
 20
219.404344
 30
0.0
  0
VERTEX
  5
C9527
  8
05
 10
136.539334
 20
219.404344
 30
0.0
 42
-0.414214
  0
VERTEX
  5
C9528
  8
05
 10
137.539334
 20
218.404344
 30
0.0
  0
VERTEX
  5
C9529
  8
05
 10
137.539334
 20
207.404344
 30
0.0
  0
SEQEND
  5
C952A
  8
05
  0
LINE
  5
C8F8D
  8
BEM1
 62
     4
 10
80.219198
 20
217.573446
 30
0.0
 11
80.219198
 21
236.949739
 31
0.0
  0
LINE
  5
C8F90
  8
BEM1
 62
     4
 10
85.58118
 20
236.132508
 30
0.0
 11
61.920845
 21
236.132508
 31
0.0
  0
SOLID
  5
C8F91
  8
BEM1
 62
     4
 10
83.719198
 20
236.715841
 30
0.0
 11
83.719198
 21
235.549174
 31
0.0
 12
80.219198
 22
236.132508
 32
0.0
 13
80.219198
 23
236.132508
 33
0.0
  0
SOLID
  5
C8F92
  8
BEM1
 62
     4
 10
63.378187
 20
236.715841
 30
0.0
 11
63.378187
 21
235.549174
 31
0.0
 12
66.878187
 22
236.132508
 32
0.0
 13
66.878187
 23
236.132508
 33
0.0
  0
TEXT
  8
0
  40
3.5
  5
C958C
  62
3
  72
0
  71
0
 10
60.7045
 20
233.633
 30
0.000000
  1
13.7
  0
LINE
  5
C8F94
  8
BEM1
 62
     4
 10
66.878187
 20
218.390839
 30
0.0
 11
66.878187
 21
236.949739
 31
0.0
  0
TEXT
  5
C9252
  8
BEM1
 10
57.720685
 20
119.143598
 30
0.0
 40
2.5
  1
[.327"]
 41
0.85
 51
15.0
  0
TEXT
  5
C9253
  8
BEM1
 62
     3
 10
47.383108
 20
118.994154
 30
0.0
 40
3.5
  1
%%C8.3
 41
0.75
 51
15.0
 72
     1
 11
51.320608
 21
120.744154
 31
0.0
 73
     2
  0
LINE
  5
C9254
  8
MITTE
 10
48.801299
 20
102.275174
 30
0.0
 11
63.533031
 21
102.275174
 31
0.0
  0
CIRCLE
  5
C9255
  8
05
 10
56.167165
 20
102.275174
 30
0.0
 40
4.15
  0
LINE
  5
C9256
  8
BEM1
 10
68.86955
 20
117.471625
 30
0.0
 11
44.37401
 21
117.471625
 31
0.0
  0
LINE
  5
C9257
  8
BEM1
 10
52.017165
 20
104.421512
 30
0.0
 11
52.017165
 21
117.925566
 31
0.0
  0
LINE
  5
C9258
  8
MITTE
 10
56.167165
 20
109.64104
 30
0.0
 11
56.167165
 21
94.909308
 31
0.0
  0
POLYLINE
  5
C9259
  8
035
 66
     1
 10
0.0
 20
0.0
 30
0.0
  0
VERTEX
  5
C952B
  8
035
 10
44.440961
 20
121.660894
 30
0.0
  0
VERTEX
  5
C952C
  8
035
 10
46.692145
 20
121.138878
 30
0.0
  0
VERTEX
  5
C952D
  8
035
 10
44.34091
 20
120.520096
 30
0.0
  0
SEQEND
  5
C952E
  8
035
  0
TEXT
  5
C925A
  8
035
 10
43.669612
 20
117.448528
 30
0.0
 40
4.578627
  1
-
 41
0.7
 51
15.0
  0
SOLID
  5
C925B
  8
BEM1
 10
49.519733
 20
117.887863
 30
0.0
 11
49.519733
 21
117.055386
 31
0.0
 12
52.017165
 22
117.471625
 32
0.0
 13
52.017165
 23
117.471625
 33
0.0
  0
LINE
  5
C925C
  8
BEM1
 10
60.317165
 20
104.666807
 30
0.0
 11
60.317165
 21
117.879218
 31
0.0
  0
SOLID
  5
C925D
  8
BEM1
 10
62.814598
 20
117.887863
 30
0.0
 11
62.814598
 21
117.055386
 31
0.0
 12
60.317165
 22
117.471625
 32
0.0
 13
60.317165
 23
117.471625
 33
0.0
  0
TEXT
  5
C9260
  8
035
 10
43.547552
 20
139.908113
 30
0.0
 40
3.0
  1
Panel cut out
  7
ARIAL
  0
TEXT
  5
C9261
  8
035
 10
32.145145
 20
146.908113
 30
0.0
 40
3.5
  1
Frontplattenausschnitt
  7
ARIAL
  0
TEXT
  5
C92D1
  8
035
 10
107.022159
 20
146.908113
 30
0.0
 40
3.5
  1
Print-Bohrplan (Bestückungsseite)
  7
ARIAL
  0
TEXT
  5
C92D2
  8
035
 10
114.238894
 20
139.908113
 30
0.0
 40
3.0
  1
PCB-Layout (component side)
  7
ARIAL
  0
TEXT
  5
C92E4
  8
BEM1
 10
72.590888
 20
238.190301
 30
0.0
 40
2.5
  1
[.539"]
 41
0.85
 51
15.0
  0
TEXT
  5
C92E5
  8
BEM1
 10
130.55602
 20
238.190301
 30
0.0
 40
2.5
  1
[.441"]
 41
0.85
 51
15.0
  0
TEXT
  5
C92E6
  8
BEM1
 10
90.750334
 20
230.087816
 30
0.0
 40
2.5
  1
[.276"]
 41
0.85
 51
15.0
  0
TEXT
  5
C92E7
  8
BEM1
 10
92.46109
 20
191.977137
 30
0.0
 40
2.5
  1
[.274"]
 50
90.0
 41
0.85
 51
15.0
  0
TEXT
  5
C92E8
  8
BEM1
 10
99.240336
 20
191.899249
 30
0.0
 40
2.5
  1
[.473"]
 50
90.0
 41
0.85
 51
15.0
  0
LINE
  5
C92ED
  8
MITTE
 10
139.00485
 20
107.913157
 30
0.0
 11
142.816654
 21
107.913157
 31
0.0
  0
LINE
  5
C92EE
  8
BEM1
 10
141.437886
 20
109.372935
 30
0.0
 11
144.516269
 21
118.624228
 31
0.0
  0
LINE
  5
C92EF
  8
BEM1
 10
130.914762
 20
89.565223
 30
0.0
 11
150.906742
 21
89.565223
 31
0.0
  0
TEXT
  5
C92F0
  8
BEM1
 62
     3
 10
136.342756
 20
91.009736
 30
0.0
 40
3.5
  1
10.5
 41
0.9
 51
15.0
 72
     1
 11
140.280256
 21
92.759736
 31
0.0
 73
     2
  0
TEXT
  5
C92F1
  8
BEM1
 10
135.719715
 20
85.8098
 30
0.0
 40
2.5
  1
[.413"]
 41
0.85
 51
15.0
  0
POLYLINE
  5
C92F2
  8
010
  6
HIDDEN
 66
     1
 10
0.0
 20
0.0
 30
0.0
  0
VERTEX
  5
C952F
  8
010
  6
HIDDEN
 10
144.813952
 20
107.913157
 30
0.0
  0
VERTEX
  5
C9530
  8
010
  6
HIDDEN
 10
144.813952
 20
113.434757
 30
0.0
 42
0.414214
  0
VERTEX
  5
C9531
  8
010
  6
HIDDEN
 10
144.147552
 20
114.101157
 30
0.0
  0
VERTEX
  5
C9532
  8
010
  6
HIDDEN
 10
137.673952
 20
114.101157
 30
0.0
 42
0.414214
  0
VERTEX
  5
C9533
  8
010
  6
HIDDEN
 10
137.007552
 20
113.434757
 30
0.0
  0
VERTEX
  5
C9534
  8
010
  6
HIDDEN
 10
137.007552
 20
107.913157
 30
0.0
  0
VERTEX
  5
C9535
  8
010
  6
HIDDEN
 10
136.626752
 20
107.913157
 30
0.0
 42
0.414214
  0
VERTEX
  5
C9536
  8
010
  6
HIDDEN
 10
135.674752
 20
106.961157
 30
0.0
  0
VERTEX
  5
C9537
  8
010
  6
HIDDEN
 10
135.674752
 20
100.963557
 30
0.0
  0
VERTEX
  5
C9538
  8
010
  6
HIDDEN
 10
146.146752
 20
100.963557
 30
0.0
  0
VERTEX
  5
C9539
  8
010
  6
HIDDEN
 10
146.146752
 20
106.961157
 30
0.0
 42
0.414214
  0
VERTEX
  5
C953A
  8
010
  6
HIDDEN
 10
145.194752
 20
107.913157
 30
0.0
  0
VERTEX
  5
C953B
  8
010
  6
HIDDEN
 10
144.813952
 20
107.913157
 30
0.0
  0
SEQEND
  5
C953C
  8
010
  6
HIDDEN
  0
SOLID
  5
C92F3
  8
BEM1
 10
141.840437
 20
112.483675
 30
0.0
 11
142.827566
 21
112.18497
 31
0.0
 12
141.437886
 22
109.372935
 32
0.0
 13
141.437886
 23
109.372935
 33
0.0
  0
CIRCLE
  5
C92F4
  8
035
 10
140.910752
 20
107.913157
 30
0.0
 40
1.332799
  0
TEXT
  5
C92F5
  8
BEM1
 10
118.412476
 20
109.170507
 30
0.0
 40
2.5
  1
[.059"]
 41
0.85
 51
15.0
  0
TEXT
  5
C92F6
  8
BEM1
 62
     3
 10
118.630397
 20
113.926193
 30
0.0
 40
3.5
  1
%%c1.5
 41
0.9
 51
15.0
 72
     1
 11
122.830397
 21
115.676193
 31
0.0
 73
     2
  0
LINE
  5
C92F7
  8
BEM1
 10
118.380083
 20
112.640365
 30
0.0
 11
131.826398
 21
112.640365
 31
0.0
  0
LINE
  5
C92F8
  8
MITTE
 10
140.910752
 20
101.724212
 30
0.0
 11
140.910752
 21
103.630114
 31
0.0
  0
LINE
  5
C92F9
  8
MITTE
 10
135.912757
 20
100.771261
 30
0.0
 11
135.912757
 21
104.583065
 31
0.0
  0
SOLID
  5
C92FA
  8
BEM1
 10
137.972126
 20
105.157658
 30
0.0
 11
138.741238
 21
105.844764
 31
0.0
 12
140.418
 22
103.193874
 32
0.0
 13
140.418
 23
103.193874
 33
0.0
  0
CIRCLE
  5
C92FB
  8
035
 10
140.910752
 20
102.677163
 30
0.0
 40
0.713999
  0
LINE
  5
C92FC
  8
MITTE
 10
139.957801
 20
102.677163
 30
0.0
 11
141.863703
 21
102.677163
 31
0.0
  0
SOLID
  5
C92FD
  8
BEM1
 10
149.002747
 20
89.049556
 30
0.0
 11
149.002747
 21
90.08089
 31
0.0
 12
145.908747
 22
89.565223
 32
0.0
 13
145.908747
 23
89.565223
 33
0.0
  0
LINE
  5
C92FE
  8
BEM1
 10
135.912757
 20
99.944537
 30
0.0
 11
135.912757
 21
89.151082
 31
0.0
  0
CIRCLE
  5
C92FF
  8
035
 10
135.912757
 20
102.677163
 30
0.0
 40
1.332799
  0
LINE
  5
C9300
  8
MITTE
 10
134.006855
 20
102.677163
 30
0.0
 11
137.818659
 21
102.677163
 31
0.0
  0
LINE
  5
C9301
  8
BEM1
 10
140.418
 20
103.193874
 30
0.0
 11
131.825448
 21
112.640365
 31
0.0
  0
LINE
  5
C9302
  8
MITTE
 10
140.910752
 20
106.007255
 30
0.0
 11
140.910752
 21
109.81906
 31
0.0
  0
SOLID
  5
C9303
  8
BEM1
 10
158.438135
 20
111.007157
 30
0.0
 11
159.469468
 21
111.007157
 31
0.0
 12
158.953801
 22
107.913157
 32
0.0
 13
158.953801
 23
107.913157
 33
0.0
  0
TEXT
  5
C9304
  8
BEM1
 62
     3
 10
146.317878
 20
119.901481
 30
0.0
 40
3.5
  1
3x%%c2.8
 41
0.85
 51
15.0
 72
     1
 11
153.755378
 21
121.651481
 31
0.0
 73
     2
  0
LINE
  5
C9305
  8
BEM1
 10
144.516269
 20
118.624228
 30
0.0
 11
161.375958
 21
118.624228
 31
0.0
  0
TEXT
  5
C9306
  8
BEM1
 10
151.716158
 20
115.334555
 30
0.0
 40
2.5
  1
[.110"]
 41
0.85
 51
15.0
  0
LINE
  5
C9307
  8
BEM1
 10
144.006653
 20
107.913157
 30
0.0
 11
159.3543
 21
107.913157
 31
0.0
  0
SOLID
  5
C9308
  8
BEM1
 10
158.438135
 20
99.583163
 30
0.0
 11
159.469468
 21
99.583163
 31
0.0
 12
158.953801
 22
102.677163
 32
0.0
 13
158.953801
 23
102.677163
 33
0.0
  0
LINE
  5
C9309
  8
BEM1
 10
148.866317
 20
102.677163
 30
0.0
 11
159.313156
 21
102.677163
 31
0.0
  0
LINE
  5
C930A
  8
MITTE
 10
145.908747
 20
100.771261
 30
0.0
 11
145.908747
 21
104.583065
 31
0.0
  0
SOLID
  5
C930B
  8
BEM1
 10
132.818757
 20
89.049556
 30
0.0
 11
132.818757
 21
90.08089
 31
0.0
 12
135.912757
 22
89.565223
 32
0.0
 13
135.912757
 23
89.565223
 33
0.0
  0
LINE
  5
C930C
  8
BEM1
 10
145.908747
 20
99.944537
 30
0.0
 11
145.908747
 21
89.151082
 31
0.0
  0
CIRCLE
  5
C930D
  8
035
 10
145.908747
 20
102.677163
 30
0.0
 40
1.332799
  0
LINE
  5
C930E
  8
MITTE
 10
144.002845
 20
102.677163
 30
0.0
 11
147.814649
 21
102.677163
 31
0.0
  0
TEXT
  5
C930F
  8
BEM1
 62
     3
 10
157.61281
 20
88.691982
 30
0.0
 40
3.5
  1
5.5
 50
90.0
 41
0.75
 51
15.0
 72
     1
 11
155.86281
 21
91.316982
 31
0.0
 73
     2
  0
TEXT
  5
C9310
  8
BEM1
 10
162.868476
 20
88.480056
 30
0.0
 40
2.5
  1
[.217"]
 50
90.0
 41
0.85
 51
15.0
  0
LINE
  5
C9311
  8
BEM1
 10
158.953801
 20
88.465006
 30
0.0
 11
158.953801
 21
112.64188
 31
0.0
  0
LINE
  5
C9315
  8
BEM1
 10
80.608782
 20
219.404344
 30
0.0
 11
101.620727
 21
219.404344
 31
0.0
  0
LINE
  5
C9316
  8
05
 10
73.725833
 20
207.404344
 30
0.0
 11
73.28078
 21
204.681501
 31
0.0
  0
ARC
  5
C9317
  8
05
 10
73.774231
 20
204.600846
 30
0.0
 40
0.5
 50
170.716998
 51
190.54932
  0
LINE
  5
C9318
  8
05
 10
73.710747
 20
202.210722
 30
0.0
 11
73.282683
 21
204.509305
 31
0.0
  0
LINE
  5
C9319
  8
05
 10
127.045969
 20
207.404344
 30
0.0
 11
126.600915
 21
204.681501
 31
0.0
  0
ARC
  5
C931A
  8
05
 10
127.094367
 20
204.600846
 30
0.0
 40
0.5
 50
170.716998
 51
190.54932
  0
LINE
  5
C931B
  8
05
 10
127.030882
 20
202.210722
 30
0.0
 11
126.602818
 21
204.509305
 31
0.0
  0
LINE
  5
C931C
  8
05
 10
137.032698
 20
207.404344
 30
0.0
 11
137.477752
 21
204.681501
 31
0.0
  0
LINE
  5
C931D
  8
05
 10
137.539334
 20
207.404344
 30
0.0
 11
137.971204
 21
204.762157
 31
0.0
  0
LINE
  5
C931E
  8
05
 10
137.047785
 20
202.210722
 30
0.0
 11
137.475849
 21
204.509305
 31
0.0
  0
LINE
  5
C931F
  8
05
 10
137.539334
 20
202.119181
 30
0.0
 11
137.047785
 21
202.210722
 31
0.0
  0
ARC
  5
C9320
  8
05
 10
136.9843
 20
204.600846
 30
0.0
 40
0.5
 50
349.45068
 51
9.283002
  0
ARC
  5
C9321
  8
05
 10
136.9843
 20
204.600846
 30
0.0
 40
1.0
 50
349.45068
 51
9.283002
  0
LINE
  5
C9322
  8
05
 10
137.539334
 20
202.119181
 30
0.0
 11
137.967398
 21
204.417764
 31
0.0
  0
LINE
  5
C9323
  8
010
 10
80.103514
 20
204.600846
 30
0.0
 11
79.792453
 21
204.600846
 31
0.0
  0
LINE
  5
C9324
  8
010
 10
79.36837
 20
204.600846
 30
0.0
 11
77.433494
 21
204.600846
 31
0.0
  0
LINE
  5
C9325
  8
010
 10
132.480214
 20
204.600846
 30
0.0
 11
130.545338
 21
204.600846
 31
0.0
  0
LINE
  5
C9326
  8
010
 10
133.215358
 20
204.600846
 30
0.0
 11
132.904297
 21
204.600846
 31
0.0
  0
INSERT
  5
C9446
  8
BEM1
 66
     1
  2
ZKOPF-REAN
 10
205.0
 20
5.0
 30
0.0
  0
ATTRIB
  5
C9447
  8
0
 62
     4
 10
189.833333
 20
42.0
 30
0.0
 40
2.5
  1
Battlogg
  7
SCRIPTS
 72
     1
 11
196.5
 21
42.0
 31
0.0
  2
NAME
 70
     0
  0
ATTRIB
  5
C9448
  8
0
 62
     4
 10
175.979167
 20
42.0
 30
0.0
 40
2.5
  1
01.02.01
 41
0.7
 51
15.0
 72
     1
 11
180.5
 21
42.0
 31
0.0
  2
DATE
 70
     0
  0
ATTRIB
  5
C9449
  8
0
 62
     4
 10
124.5
 20
41.0
 30
0.0
 40
2.5
  1

 41
0.7
 51
15.0
 72
     1
 11
124.5
 21
41.0
 31
0.0
  2
WERKSTOFF
 70
     0
  0
ATTRIB
  5
C944A
  8
0
 62
     2
 10
101.333333
 20
17.5
 30
0.0
 40
5.0
  1
NYS 354
 41
0.7
 51
15.0
 72
     1
 11
113.0
 21
17.5
 31
0.0
  2
BENENNUNG
 70
     0
  0
ATTRIB
  5
C944B
  8
0
 62
     3
 10
102.07621
 20
26.082191
 30
0.0
 40
3.5
  1
Phono ("RCA")
 41
0.7
 51
15.0
 72
     1
 11
115.959543
 21
26.082191
 31
0.0
  2
TEIL
 70
     0
  0
ATTRIB
  5
C944C
  8
0
 62
     3
 10
169.545614
 20
6.976541
 30
0.0
 40
3.5
  1
3102 ST 22 43
 41
0.7
 51
15.0
 72
     1
 11
184.449781
 21
6.976541
 31
0.0
  2
NUMMER
 70
     0
  0
ATTRIB
  5
C944D
  8
0
 62
     2
 10
142.100662
 20
39.656056
 30
0.0
 40
5.0
  1
1:1
 41
0.7
 51
15.0
 72
     1
 11
144.433995
 21
39.656056
 31
0.0
  2
MASS
 70
     0
  0
ATTRIB
  5
C944E
  8
0
 62
     3
 10
144.519299
 20
33.210451
 30
0.0
 40
3.5
  1

 41
0.7
 51
15.0
 72
     1
 11
144.519299
 21
33.210451
 31
0.0
  2
MASS2
 70
     0
  0
ATTRIB
  5
C944F
  8
0
 62
     4
 10
124.0
 20
34.0
 30
0.0
 40
2.5
  1

 41
0.7
 51
15.0
 72
     1
 11
124.0
 21
34.0
 31
0.0
  2
TEIL
 70
     0
  0
ATTRIB
  5
C9450
  8
0
 62
     3
 10
97.288548
 20
64.004319
 30
0.0
 40
3.5
  1

 41
0.7
 51
15.0
  2
TOL
 70
     0
  0
ATTRIB
  5
C9451
  8
0
 62
     3
 10
97.288548
 20
59.004319
 30
0.0
 40
3.5
  1

 41
0.7
 51
15.0
  2
RADIEN
 70
     0
  0
ATTRIB
  5
C9452
  8
0
 62
     3
 10
97.288548
 20
54.004319
 30
0.0
 40
3.5
  1

 41
0.7
 51
15.0
  2
FACETTE
 70
     0
  0
ATTRIB
  5
C9453
  8
0
 62
     4
 10
7.813733
 20
12.0
 30
0.0
 40
2.5
  1

 41
0.7
 51
15.0
  2
INDEX1
 70
     0
  0
ATTRIB
  5
C9454
  8
0
 62
     4
 10
14.651257
 20
12.0
 30
0.0
 40
2.5
  1

 41
0.7
 51
15.0
  2
A1
 70
     0
  0
ATTRIB
  5
C9455
  8
0
 62
     4
 10
47.651257
 20
12.0
 30
0.0
 40
2.5
  1

 41
0.7
 51
15.0
  2
DATUM1
 70
     0
  0
ATTRIB
  5
C9456
  8
0
 62
     4
 10
60.53501
 20
12.0
 30
0.0
 40
2.5
  1

 41
0.7
 51
15.0
  2
NAME1
 70
     0
  0
ATTRIB
  5
C9457
  8
0
 62
     4
 10
7.813733
 20
17.0
 30
0.0
 40
2.5
  1

 41
0.7
 51
15.0
  2
INDEX2
 70
     0
  0
ATTRIB
  5
C9458
  8
0
 62
     4
 10
14.651257
 20
17.0
 30
0.0
 40
2.5
  1

 41
0.7
 51
15.0
  2
A2
 70
     0
  0
ATTRIB
  5
C9459
  8
0
 62
     4
 10
47.651257
 20
17.0
 30
0.0
 40
2.5
  1

 41
0.7
 51
15.0
  2
DATUM2
 70
     0
  0
ATTRIB
  5
C945A
  8
0
 62
     4
 10
60.53501
 20
17.0
 30
0.0
 40
2.5
  1

 41
0.7
 51
15.0
  2
NAME2
 70
     0
  0
ATTRIB
  5
C945B
  8
0
 62
     4
 10
7.813733
 20
22.0
 30
0.0
 40
2.5
  1

 41
0.7
 51
15.0
  2
INDEX3
 70
     0
  0
ATTRIB
  5
C945C
  8
0
 62
     4
 10
14.651257
 20
22.0
 30
0.0
 40
2.5
  1

 41
0.7
 51
15.0
  2
A3
 70
     0
  0
ATTRIB
  5
C945D
  8
0
 62
     4
 10
47.651257
 20
22.0
 30
0.0
 40
2.5
  1

 41
0.7
 51
15.0
  2
DATUM3
 70
     0
  0
ATTRIB
  5
C945E
  8
0
 62
     4
 10
60.53501
 20
22.0
 30
0.0
 40
2.5
  1

 41
0.7
 51
15.0
  2
NAME3
 70
     0
  0
ATTRIB
  5
C945F
  8
0
 62
     4
 10
7.813733
 20
27.0
 30
0.0
 40
2.5
  1

 41
0.7
 51
15.0
  2
INDEX4
 70
     0
  0
ATTRIB
  5
C9460
  8
0
 62
     4
 10
14.651257
 20
27.0
 30
0.0
 40
2.5
  1

 41
0.7
 51
15.0
  2
A4
 70
     0
  0
ATTRIB
  5
C9461
  8
0
 62
     4
 10
47.651257
 20
27.0
 30
0.0
 40
2.5
  1

 41
0.7
 51
15.0
  2
DATUM4
 70
     0
  0
ATTRIB
  5
C9462
  8
0
 62
     4
 10
60.53501
 20
27.0
 30
0.0
 40
2.5
  1

 41
0.7
 51
15.0
  2
NAME4
 70
     0
  0
ATTRIB
  5
C9463
  8
0
 62
     4
 10
7.813733
 20
32.0
 30
0.0
 40
2.5
  1

 41
0.7
 51
15.0
  2
INDEX5
 70
     0
  0
ATTRIB
  5
C9464
  8
0
 62
     4
 10
14.651257
 20
32.0
 30
0.0
 40
2.5
  1

 41
0.7
 51
15.0
  2
A5
 70
     0
  0
ATTRIB
  5
C9465
  8
0
 62
     4
 10
47.651257
 20
32.0
 30
0.0
 40
2.5
  1

 41
0.7
 51
15.0
  2
DATUM5
 70
     0
  0
ATTRIB
  5
C9466
  8
0
 62
     4
 10
60.53501
 20
32.0
 30
0.0
 40
2.5
  1

 41
0.7
 51
15.0
  2
NAME5
 70
     0
  0
ATTRIB
  5
C9467
  8
0
 62
     4
 10
7.813733
 20
37.0
 30
0.0
 40
2.5
  1

 41
0.7
 51
15.0
  2
INDEX6
 70
     0
  0
ATTRIB
  5
C9468
  8
0
 62
     4
 10
14.651257
 20
37.0
 30
0.0
 40
2.5
  1

 41
0.7
 51
15.0
  2
A6
 70
     0
  0
ATTRIB
  5
C9469
  8
0
 62
     4
 10
47.651257
 20
37.0
 30
0.0
 40
2.5
  1

 41
0.7
 51
15.0
  2
DATUM6
 70
     0
  0
ATTRIB
  5
C946A
  8
0
 62
     4
 10
60.53501
 20
37.0
 30
0.0
 40
2.5
  1

 41
0.7
 51
15.0
  2
NAME6
 70
     0
  0
ATTRIB
  5
C946B
  8
0
 62
     4
 10
7.813733
 20
42.0
 30
0.0
 40
2.5
  1

 41
0.7
 51
15.0
  2
INDEX7
 70
     0
  0
ATTRIB
  5
C946C
  8
0
 62
     4
 10
14.651257
 20
42.0
 30
0.0
 40
2.5
  1

 41
0.7
 51
15.0
  2
A7
 70
     0
  0
ATTRIB
  5
C946D
  8
0
 62
     4
 10
47.651257
 20
42.0
 30
0.0
 40
2.5
  1

 41
0.7
 51
15.0
  2
DATUM7
 70
     0
  0
ATTRIB
  5
C946E
  8
0
 62
     4
 10
60.53501
 20
42.0
 30
0.0
 40
2.5
  1

 41
0.7
 51
15.0
  2
NAME7
 70
     0
  0
ATTRIB
  5
C946F
  8
0
 62
     4
 10
7.813733
 20
47.0
 30
0.0
 40
2.5
  1

 41
0.7
 51
15.0
  2
INDEX8
 70
     0
  0
ATTRIB
  5
C9470
  8
0
 62
     4
 10
14.651257
 20
47.0
 30
0.0
 40
2.5
  1

 41
0.7
 51
15.0
  2
A8
 70
     0
  0
ATTRIB
  5
C9471
  8
0
 62
     4
 10
47.651257
 20
47.0
 30
0.0
 40
2.5
  1

 41
0.7
 51
15.0
  2
DATUM8
 70
     0
  0
ATTRIB
  5
C9472
  8
0
 62
     4
 10
60.53501
 20
47.0
 30
0.0
 40
2.5
  1

 41
0.7
 51
15.0
  2
NAME8
 70
     0
  0
SEQEND
  5
C9473
  8
BEM1
  0
ENDSEC
  0
EOF
