  0
SECTION
  2
HEADER
  9
$ACADVER
  1
AC1009
  9
$INSBASE
 10
0.0
 20
0.0
 30
0.0
  9
$EXTMIN
 10
0.0
 20
0.0
 30
0.0
  9
$EXTMAX
 10
210.0
 20
297.0
 30
0.0
  9
$LIMMIN
 10
0.0
 20
0.0
  9
$LIMMAX
 10
410.0
 20
287.0
  9
$ORTHOMODE
 70
     1
  9
$REGENMODE
 70
     1
  9
$FILLMODE
 70
     1
  9
$QTEXTMODE
 70
     0
  9
$MIRRTEXT
 70
     1
  9
$DRAGMODE
 70
     2
  9
$LTSCALE
 40
3.0
  9
$OSMODE
 70
    33
  9
$ATTMODE
 70
     1
  9
$TEXTSIZE
 40
3.5
  9
$TRACEWID
 40
26.0
  9
$TEXTSTYLE
  7
STANDARD
  9
$CLAYER
  8
05
  9
$CELTYPE
  6
BYLAYER
  9
$CECOLOR
 62
   256
  9
$DIMSCALE
 40
1.0
  9
$DIMASZ
 40
3.5
  9
$DIMEXO
 40
1.0
  9
$DIMDLI
 40
8.0
  9
$DIMRND
 40
0.0
  9
$DIMDLE
 40
0.0
  9
$DIMEXE
 40
1.2
  9
$DIMTP
 40
0.0
  9
$DIMTM
 40
0.0
  9
$DIMTXT
 40
3.5
  9
$DIMCEN
 40
0.0
  9
$DIMTSZ
 40
0.0
  9
$DIMTOL
 70
     0
  9
$DIMLIM
 70
     0
  9
$DIMTIH
 70
     0
  9
$DIMTOH
 70
     0
  9
$DIMSE1
 70
     0
  9
$DIMSE2
 70
     0
  9
$DIMTAD
 70
     1
  9
$DIMZIN
 70
     0
  9
$DIMBLK
  1

  9
$DIMASO
 70
     0
  9
$DIMSHO
 70
     0
  9
$DIMPOST
  1

  9
$DIMAPOST
  1
"
  9
$DIMALT
 70
     0
  9
$DIMALTD
 70
     3
  9
$DIMALTF
 40
0.03937
  9
$DIMLFAC
 40
1.0
  9
$DIMTOFL
 70
     0
  9
$DIMTVP
 40
0.0
  9
$DIMTIX
 70
     1
  9
$DIMSOXD
 70
     0
  9
$DIMSAH
 70
     0
  9
$DIMBLK1
  1

  9
$DIMBLK2
  1

  9
$DIMSTYLE
  2
NEUTRIK
  9
$DIMCLRD
 70
     4
  9
$DIMCLRE
 70
     4
  9
$DIMCLRT
 70
     3
  9
$DIMTFAC
 40
1.0
  9
$DIMGAP
 40
0.15
  9
$LUNITS
 70
     2
  9
$LUPREC
 70
     2
  9
$SKETCHINC
 40
0.387898
  9
$FILLETRAD
 40
2.5
  9
$AUNITS
 70
     0
  9
$AUPREC
 70
     2
  9
$MENU
  1
acad
  9
$ELEVATION
 40
0.0
  9
$PELEVATION
 40
0.0
  9
$THICKNESS
 40
0.0
  9
$LIMCHECK
 70
     0
  9
$BLIPMODE
 70
     0
  9
$CHAMFERA
 40
0.0
  9
$CHAMFERB
 40
0.0
  9
$SKPOLY
 70
     0
  9
$TDCREATE
 40
2450555.560589
  9
$TDUPDATE
 40
2453319.586718
  9
$TDINDWG
 40
1.172772
  9
$TDUSRTIMER
 40
1.172772
  9
$USRTIMER
 70
     1
  9
$ANGBASE
 50
0.0
  9
$ANGDIR
 70
     0
  9
$PDMODE
 70
     0
  9
$PDSIZE
 40
0.0
  9
$PLINEWID
 40
0.0
  9
$COORDS
 70
     2
  9
$SPLFRAME
 70
     0
  9
$SPLINETYPE
 70
     6
  9
$SPLINESEGS
 70
     8
  9
$ATTDIA
 70
     0
  9
$ATTREQ
 70
     1
  9
$HANDLING
 70
     1
  9
$HANDSEED
  5
CD264
  9
$SURFTAB1
 70
     6
  9
$SURFTAB2
 70
     6
  9
$SURFTYPE
 70
     6
  9
$SURFU
 70
     6
  9
$SURFV
 70
     6
  9
$UCSNAME
  2

  9
$UCSORG
 10
0.0
 20
0.0
 30
0.0
  9
$UCSXDIR
 10
1.0
 20
0.0
 30
0.0
  9
$UCSYDIR
 10
0.0
 20
1.0
 30
0.0
  9
$PUCSNAME
  2

  9
$PUCSORG
 10
0.0
 20
0.0
 30
0.0
  9
$PUCSXDIR
 10
1.0
 20
0.0
 30
0.0
  9
$PUCSYDIR
 10
0.0
 20
1.0
 30
0.0
  9
$USERI1
 70
     0
  9
$USERI2
 70
     0
  9
$USERI3
 70
     0
  9
$USERI4
 70
     0
  9
$USERI5
 70
     0
  9
$USERR1
 40
0.0
  9
$USERR2
 40
0.0
  9
$USERR3
 40
0.0
  9
$USERR4
 40
0.0
  9
$USERR5
 40
0.0
  9
$WORLDVIEW
 70
     1
  9
$SHADEDGE
 70
     3
  9
$SHADEDIF
 70
    70
  9
$TILEMODE
 70
     1
  9
$MAXACTVP
 70
    16
  9
$PLIMCHECK
 70
     0
  9
$PEXTMIN
 10
1.000000E+020
 20
1.000000E+020
 30
1.000000E+020
  9
$PEXTMAX
 10
-1.000000E+020
 20
-1.000000E+020
 30
-1.000000E+020
  9
$PLIMMIN
 10
0.0
 20
0.0
  9
$PLIMMAX
 10
12.0
 20
9.0
  9
$UNITMODE
 70
     0
  9
$VISRETAIN
 70
     0
  9
$PLINEGEN
 70
     0
  9
$PSLTSCALE
 70
     0
  0
ENDSEC
  0
SECTION
  2
TABLES
  0
TABLE
  2
VPORT
 70
     2
  0
VPORT
  2
*ACTIVE
 70
     0
 10
0.0
 20
0.0
 11
1.0
 21
1.0
 12
105.00806
 22
148.494707
 13
0.0
 23
0.0
 14
1.0
 24
1.0
 15
2.0
 25
2.0
 16
0.0
 26
0.0
 36
1.0
 17
0.0
 27
0.0
 37
0.0
 40
299.24173
 41
1.525
 42
50.0
 43
0.0
 44
0.0
 50
0.0
 51
0.0
 71
     0
 72
   500
 73
     1
 74
     0
 75
     0
 76
     0
 77
     0
 78
     2
  0
ENDTAB
  0
TABLE
  2
LTYPE
 70
     4
  0
LTYPE
  2
AUSGEZOGEN
 70
     0
  3
Ausgezogene Linie
 72
    65
 73
     0
 40
0.0
  0
LTYPE
  2
CENTER
 70
     0
  3
____ _ ____ _ ____ _ ____ _ ____ _ ____ _ ____
 72
    65
 73
     4
 40
2.0
 49
1.25
 49
-0.25
 49
0.25
 49
-0.25
  0
LTYPE
  2
CONTINUOUS
 70
     0
  3
Solid line
 72
    65
 73
     0
 40
0.0
  0
LTYPE
  2
HIDDEN
 70
     0
  3
_ _ _ _ _ _ _ _ _ _ _ _ _ _ _ _ _ _ _ _ _ _ _
 72
    65
 73
     2
 40
0.375
 49
0.25
 49
-0.125
  0
ENDTAB
  0
TABLE
  2
LAYER
 70
     8
  0
LAYER
  2
0
 70
     0
 62
     7
  6
AUSGEZOGEN
  0
LAYER
  2
05
 70
     0
 62
     2
  6
AUSGEZOGEN
  0
LAYER
  2
035
 70
     0
 62
     3
  6
AUSGEZOGEN
  0
LAYER
  2
025
 70
     0
 62
     4
  6
AUSGEZOGEN
  0
LAYER
  2
ASHADE
 70
     0
 62
     7
  6
AUSGEZOGEN
  0
LAYER
  2
MITTE
 70
     0
 62
     4
  6
CENTER
  0
LAYER
  2
BEM1
 70
     0
 62
     4
  6
AUSGEZOGEN
  0
LAYER
  2
RAHMEN
 70
     0
 62
     2
  6
AUSGEZOGEN
  0
ENDTAB
  0
TABLE
  2
STYLE
 70
     3
  0
STYLE
  2
STANDARD
 70
     0
 40
0.0
 41
0.7
 50
15.0
 71
     0
 42
3.5
  3
txt
  4

  0
STYLE
  2
HELV
 70
     0
 40
0.0
 41
0.8
 50
10.0
 71
     0
 42
2.0
  3
HELV.SHX
  4

  0
STYLE
  2
SCRIPTS
 70
     0
 40
0.0
 41
1.0
 50
0.0
 71
     0
 42
5.0
  3
scripts
  4

  0
ENDTAB
  0
TABLE
  2
VIEW
 70
     1
  0
VIEW
  2
OLE1
 70
     0
 40
362.04338
 10
262.080453
 20
181.02169
 41
524.160906
 11
0.0
 21
0.0
 31
1.0
 12
0.0
 22
0.0
 32
0.0
 42
50.0
 43
0.0
 44
0.0
 50
0.0
 71
     0
  0
ENDTAB
  0
TABLE
  2
UCS
 70
     0
  0
ENDTAB
  0
TABLE
  2
APPID
 70
     2
  0
APPID
  2
ACAD
 70
     0
  0
APPID
  2
AVE_RENDER
 70
     0
  0
ENDTAB
  0
TABLE
  2
DIMSTYLE
 70
     2
  0
DIMSTYLE
  2
STANDARD
 70
     0
  3

  4
"
  5

  6

  7

 40
1.0
 41
1.7
 42
0.5
 43
8.0
 44
0.4
 45
0.0
 46
0.0
 47
0.0
 48
0.0
140
1.7
141
5.0
142
0.0
143
0.03937
144
1.0
145
0.0
146
1.0
147
0.15
 71
     0
 72
     0
 73
     0
 74
     0
 75
     0
 76
     0
 77
     1
 78
     0
170
     0
171
     3
172
     0
173
     0
174
     0
175
     0
176
   256
177
   256
178
     3
  0
DIMSTYLE
  2
NEUTRIK
 70
     0
  3

  4
"
  5

  6

  7

 40
1.0
 41
3.5
 42
1.0
 43
8.0
 44
1.2
 45
0.0
 46
0.0
 47
0.0
 48
0.0
140
3.5
141
0.0
142
0.0
143
0.03937
144
1.0
145
0.0
146
1.0
147
0.15
 71
     0
 72
     0
 73
     0
 74
     0
 75
     0
 76
     0
 77
     1
 78
     0
170
     0
171
     3
172
     0
173
     0
174
     1
175
     0
176
     4
177
     4
178
     3
  0
ENDTAB
  0
ENDSEC
  0
SECTION
  2
BLOCKS
  0
BLOCK
  8
0
  2
$MODEL_SPACE
 70
     0
 10
0.0
 20
0.0
 30
0.0
  3
$MODEL_SPACE
  1

  0
ENDBLK
  5
C6467
  8
0
  0
BLOCK
 67
     1
  8
0
  2
$PAPER_SPACE
 70
     0
 10
0.0
 20
0.0
 30
0.0
  3
$PAPER_SPACE
  1

  0
ENDBLK
  5
C6465
 67
     1
  8
0
  0
BLOCK
  8
0
  2
AVE_RENDER
 70
     0
 10
0.0
 20
0.0
 30
0.0
  3
AVE_RENDER
  1
AVE_RENDER
  0
ENDBLK
  5
2F
  8
0
  0
BLOCK
  8
0
  2
NT_1
 70
     0
 10
0.0
 20
0.0
 30
0.0
  3
NT_1
  1

  0
ENDBLK
  5
35
  8
0
  0
BLOCK
  8
0
  2
ACAD
 70
     0
 10
0.0
 20
0.0
 30
0.0
  3
ACAD
  1

  0
INSERT
  5
13B32
  8
ASHADE
 62
     1
  2
AVE_RENDER
 10
0.0
 20
0.0
 30
0.0
1001
AVE_RENDER
1002
{
1070
     2
1000
Pref
1070
    40
1070
    20
1070
     1
1070
     0
1000

1070
    10
1070
     0
1070
    30
1040
1.0
1070
     1
1040
0.3
1040
0.7
1040
0.0
1040
10.0
1010
-1.0
1020
-1.0
1030
-1.0
1040
0.3
1070
    49
1002
}
  0
INSERT
  5
13B33
  8
ASHADE
 62
     3
  2
AVE_RENDER
 10
0.0
 20
0.0
 30
0.0
1001
AVE_RENDER
1002
{
1070
     0
1000
Full Opt
1070
     0
1070
     1
1070
     1
1070
     1
1070
     0
1070
     0
1070
     0
1070
     1
1070
     1
1040
0.0001
1040
0.0001
1002
}
  0
INSERT
  5
13B34
  8
ASHADE
 62
     4
  2
AVE_RENDER
 10
0.0
 20
0.0
 30
0.0
1001
AVE_RENDER
1002
{
1070
     0
1000
Quick Opt
1070
     0
1070
     1
1070
     1
1070
     1
1070
     1
1070
     0
1070
     1
1002
}
  0
INSERT
  5
13B38
  8
05
  2
NT_1
 10
98.709341
 20
147.840651
 30
0.0
 41
32.617
 42
-6.863009
 43
32.617
  0
ENDBLK
  5
13B61
  8
0
  0
BLOCK
  8
0
  2
ZKOPFC
 70
     2
 10
0.0
 20
0.0
 30
0.0
  3
ZKOPFC
  1

  0
ATTDEF
  5
C6BAC
  8
0
 62
     4
 10
-13.321429
 20
37.0
 30
0.0
 40
2.5
  1
Dobler
  7
SCRIPTS
 72
     1
 11
-8.5
 21
37.0
 31
0.0
  3
Name des Konstrukteurs ?
  2
NAME
 70
     0
  0
POLYLINE
  5
C6BAD
  8
0
 62
     2
 66
     1
 10
0.0
 20
0.0
 30
0.0
  0
VERTEX
  5
CD172
  8
0
 62
     2
 10
-51.0
 20
0.0
 30
0.0
  0
VERTEX
  5
CD173
  8
0
 62
     2
 10
-51.0
 20
46.0
 30
0.0
  0
SEQEND
  5
CD174
  8
0
 62
     2
  0
POLYLINE
  5
C6BAE
  8
0
 62
     2
 66
     1
 10
0.0
 20
0.0
 30
0.0
  0
VERTEX
  5
CD175
  8
0
 62
     2
 10
-17.0
 20
9.0
 30
0.0
  0
VERTEX
  5
CD176
  8
0
 62
     2
 10
-17.0
 20
46.0
 30
0.0
  0
SEQEND
  5
CD177
  8
0
 62
     2
  0
POLYLINE
  5
C6BAF
  8
0
 62
     2
 66
     1
 10
0.0
 20
0.0
 30
0.0
  0
VERTEX
  5
CD178
  8
0
 62
     2
 10
-32.0
 20
26.0
 30
0.0
  0
VERTEX
  5
CD179
  8
0
 62
     2
 10
-32.0
 20
46.0
 30
0.0
  0
SEQEND
  5
CD17A
  8
0
 62
     2
  0
POLYLINE
  5
C6BB0
  8
0
 62
     2
 66
     1
 10
0.0
 20
0.0
 30
0.0
  0
VERTEX
  5
CD17B
  8
0
 62
     2
 10
-133.0
 20
41.0
 30
0.0
  0
VERTEX
  5
CD17C
  8
0
 62
     2
 10
-92.0
 20
41.0
 30
0.0
  0
SEQEND
  5
CD17D
  8
0
 62
     2
  0
POLYLINE
  5
C6BB1
  8
0
 62
     2
 66
     1
 10
0.0
 20
0.0
 30
0.0
  0
VERTEX
  5
CD17E
  8
0
 62
     2
 10
-145.0
 20
0.0
 30
0.0
  0
VERTEX
  5
CD17F
  8
0
 62
     2
 10
-145.0
 20
46.0
 30
0.0
  0
SEQEND
  5
CD180
  8
0
 62
     2
  0
POLYLINE
  5
C6BB2
  8
0
 62
     2
 66
     1
 10
0.0
 20
0.0
 30
0.0
  0
VERTEX
  5
CD181
  8
0
 62
     2
 10
-158.0
 20
0.0
 30
0.0
  0
VERTEX
  5
CD182
  8
0
 62
     2
 10
-158.0
 20
46.0
 30
0.0
  0
SEQEND
  5
CD183
  8
0
 62
     2
  0
LINE
  5
C6BB3
  8
0
 62
     2
 10
-200.0
 20
6.0
 30
0.0
 11
-133.0
 21
6.0
 31
0.0
  0
POLYLINE
  5
C6BB4
  8
0
 62
     4
 66
     1
 10
0.0
 20
0.0
 30
0.0
  0
VERTEX
  5
CD184
  8
0
 62
     4
 10
-200.0
 20
11.0
 30
0.0
  0
VERTEX
  5
CD185
  8
0
 62
     4
 10
-133.0
 20
11.0
 30
0.0
  0
SEQEND
  5
CD186
  8
0
 62
     4
  0
POLYLINE
  5
C6BB5
  8
0
 62
     4
 66
     1
 10
0.0
 20
0.0
 30
0.0
  0
VERTEX
  5
CD187
  8
0
 62
     4
 10
-200.0
 20
16.0
 30
0.0
  0
VERTEX
  5
CD188
  8
0
 62
     4
 10
-133.0
 20
16.0
 30
0.0
  0
SEQEND
  5
CD189
  8
0
 62
     4
  0
POLYLINE
  5
C6BB6
  8
0
 62
     4
 66
     1
 10
0.0
 20
0.0
 30
0.0
  0
VERTEX
  5
CD18A
  8
0
 62
     4
 10
-200.0
 20
21.0
 30
0.0
  0
VERTEX
  5
CD18B
  8
0
 62
     4
 10
-133.0
 20
21.0
 30
0.0
  0
SEQEND
  5
CD18C
  8
0
 62
     4
  0
POLYLINE
  5
C6BB7
  8
0
 62
     4
 66
     1
 10
0.0
 20
0.0
 30
0.0
  0
VERTEX
  5
CD18D
  8
0
 62
     4
 10
-200.0
 20
26.0
 30
0.0
  0
VERTEX
  5
CD18E
  8
0
 62
     4
 10
-133.0
 20
26.0
 30
0.0
  0
SEQEND
  5
CD18F
  8
0
 62
     4
  0
POLYLINE
  5
C6BB8
  8
0
 62
     4
 66
     1
 10
0.0
 20
0.0
 30
0.0
  0
VERTEX
  5
CD190
  8
0
 62
     4
 10
-200.0
 20
31.0
 30
0.0
  0
VERTEX
  5
CD191
  8
0
 62
     4
 10
-133.0
 20
31.0
 30
0.0
  0
SEQEND
  5
CD192
  8
0
 62
     4
  0
POLYLINE
  5
C6BB9
  8
0
 62
     4
 66
     1
 10
0.0
 20
0.0
 30
0.0
  0
VERTEX
  5
CD193
  8
0
 62
     4
 10
-200.0
 20
36.0
 30
0.0
  0
VERTEX
  5
CD194
  8
0
 62
     4
 10
-133.0
 20
36.0
 30
0.0
  0
SEQEND
  5
CD195
  8
0
 62
     4
  0
POLYLINE
  5
C6BBA
  8
0
 62
     4
 66
     1
 10
0.0
 20
0.0
 30
0.0
  0
VERTEX
  5
CD196
  8
0
 62
     4
 10
-200.0
 20
41.0
 30
0.0
  0
VERTEX
  5
CD197
  8
0
 62
     4
 10
-133.0
 20
41.0
 30
0.0
  0
SEQEND
  5
CD198
  8
0
 62
     4
  0
TEXT
  5
C6BBB
  8
0
 62
     4
 10
-50.0
 20
6.0
 30
0.0
 40
1.5
  1
Zeichn. Nr.
 51
15.0
  0
TEXT
  5
C6BBC
  8
0
 62
     4
 10
-50.0
 20
23.0
 30
0.0
 40
1.5
  1
Ersetzt durch:         Blatt
 51
15.0
  0
TEXT
  5
C6BBD
  8
0
 62
     4
 10
-50.0
 20
38.0
 30
0.0
 40
1.5
  1
Gezeichnet
 51
15.0
  0
TEXT
  5
C6BBE
  8
0
 62
     4
 10
-50.0
 20
27.0
 30
0.0
 40
1.5
  1
Gesehen
 51
15.0
  0
TEXT
  5
C6BBF
  8
0
 62
     4
 10
-31.0
 20
42.0
 30
0.0
 40
1.5
  1
Datum     Name
 51
15.0
  0
TEXT
  5
C6BC0
  8
0
 62
     4
 10
-91.0
 20
42.0
 30
0.0
 40
1.5
  1
Werkstoff:      Massstab:
 51
15.0
  0
TEXT
  5
C6BC1
  8
0
 62
     4
 10
-132.0
 20
23.0
 30
0.0
 40
1.5
  1
Benennung:
 51
15.0
  0
LINE
  5
C6BC2
  8
0
 62
     2
 10
-133.0
 20
33.0
 30
0.0
 11
-92.0
 21
33.0
 31
0.0
  0
TEXT
  5
C6BC3
  8
0
 62
     4
 10
-132.0
 20
39.0
 30
0.0
 40
1.5
  1
*)Lieferant darf ohne 
 51
15.0
  0
TEXT
  5
C6BC4
  8
0
 62
     4
 10
-132.0
 20
36.5
 30
0.0
 40
1.5
  1
 Ruecksprache nicht 
 51
15.0
  0
TEXT
  5
C6BC5
  8
0
 62
     4
 10
-132.0
 20
34.0
 30
0.0
 40
1.5
  1
 geaendert werden
 51
15.0
  0
TEXT
  5
C6BC6
  8
0
 62
     4
 10
-132.0
 20
30.0
 30
0.0
 40
1.5
  1
Zeichnung urheberrechtlich
 51
15.0
  0
TEXT
  5
C6BC7
  8
0
 62
     4
 10
-132.0
 20
27.5
 30
0.0
 40
1.5
  1
geschuetzt (DIN 34) (C)
 51
15.0
  0
TEXT
  5
C6BC8
  8
0
 62
     4
 10
-50.0
 20
32.0
 30
0.0
 40
1.5
  1
Geprueft
 51
15.0
  0
TEXT
  5
C6BC9
  8
0
 62
     4
 10
-50.0
 20
15.0
 30
0.0
 40
1.5
  1
Ersatz fuer:           von  Blatt
 51
15.0
  0
TEXT
  5
C6BCA
  8
0
 62
     4
 10
-197.0
 20
1.0
 30
0.0
 40
1.5
  1
Ind.  Aenderung             Datum    Name
 51
15.0
  0
ATTDEF
  5
C6BCB
  8
0
 62
     4
 10
-28.875
 20
37.0
 30
0.0
 40
2.5
  1
01.10.91
 41
0.7
 51
15.0
 72
     1
 11
-24.5
 21
37.0
 31
0.0
  3
Datum der Zeichnung ?
  2
DATE
 70
     0
  0
ATTDEF
  5
C6BCC
  8
0
 62
     4
 10
-80.5
 20
36.0
 30
0.0
 40
2.5
  1

 41
0.7
 51
15.0
 72
     1
 11
-80.5
 21
36.0
 31
0.0
  3
Aus welchem Werkstoff ?
  2
WERKSTOFF
 70
     0
  0
ATTDEF
  5
C6BCD
  8
0
 62
     2
 10
-92.0
 20
12.5
 30
0.0
 40
5.0
  1

 41
0.7
 51
15.0
 72
     1
 11
-92.0
 21
12.5
 31
0.0
  3
Zeichnungsname ?
  2
BENENNUNG
 70
     0
  0
ATTDEF
  5
C6BCE
  8
0
 62
     3
 10
-90.265457
 20
21.082191
 30
0.0
 40
3.5
  1
()
 41
0.7
 51
15.0
 72
     1
 11
-89.040457
 21
21.082191
 31
0.0
  3
Zu welchem Produkt ?
  2
TEIL
 70
     0
  0
ATTDEF
  5
C6BCF
  8
0
 62
     3
 10
-20.550219
 20
1.976541
 30
0.0
 40
3.5
  1

 41
0.7
 51
15.0
 72
     1
 11
-20.550219
 21
1.976541
 31
0.0
  3
Zeichnungsnummer ?
  2
NUMMER
 70
     0
  0
ATTDEF
  5
C6BD0
  8
0
 62
     2
 10
-63.482672
 20
34.656056
 30
0.0
 40
5.0
  1
5:1
 41
0.7
 51
15.0
 72
     1
 11
-60.566005
 21
34.656056
 31
0.0
  3
Hauptmassstab:
  2
MASS
 70
     0
  0
ATTDEF
  5
C6BD1
  8
0
 62
     3
 10
-60.480701
 20
28.210451
 30
0.0
 40
3.5
  1

 41
0.7
 51
15.0
 72
     1
 11
-60.480701
 21
28.210451
 31
0.0
  3
Nebenmassstab:
  2
MASS2
 70
     0
  0
ATTDEF
  5
C6BD2
  8
0
 62
     4
 10
-81.0
 20
29.0
 30
0.0
 40
2.5
  1

 41
0.7
 51
15.0
 72
     1
 11
-81.0
 21
29.0
 31
0.0
  3
Werkstoffzusatz:
  2
TEIL
 70
     0
  0
ATTDEF
  5
C6BD3
  8
0
 62
     3
 10
-107.711452
 20
59.004319
 30
0.0
 40
3.5
  1
Freimasstoleranzen %%p0.1
 41
0.7
 51
15.0
  3
Freimasstoleranzen:
  2
TOL
 70
     0
  0
ATTDEF
  5
C6BD4
  8
0
 62
     3
 10
-107.711452
 20
54.004319
 30
0.0
 40
3.5
  1
nicht bemasste Radien R=0.2
 41
0.7
 51
15.0
  3
Nicht bemasste Radien:
  2
RADIEN
 70
     0
  0
ATTDEF
  5
C6BD5
  8
0
 62
     3
 10
-107.711452
 20
49.004319
 30
0.0
 40
3.5
  1
nicht bemasste Facetten 0.5 x 45%%D
 41
0.7
 51
15.0
  3
nicht bemasste Facetten:
  2
FACETTE
 70
     0
  0
POLYLINE
  5
C6BD6
  8
0
 62
     2
 66
     1
 10
0.0
 20
0.0
 30
0.0
  0
VERTEX
  5
CD199
  8
0
 62
     2
 10
-191.0
 20
0.0
 30
0.0
  0
VERTEX
  5
CD19A
  8
0
 62
     2
 10
-191.0
 20
46.0
 30
0.0
  0
SEQEND
  5
CD19B
  8
0
 62
     2
  0
POLYLINE
  5
C6BD7
  8
0
 62
     2
 66
     1
 10
0.0
 20
0.0
 30
0.0
  0
VERTEX
  5
CD19C
  8
0
 62
     2
 10
-133.0
 20
0.0
 30
0.0
  0
VERTEX
  5
CD19D
  8
0
 62
     2
 10
-133.0
 20
46.0
 30
0.0
  0
SEQEND
  5
CD19E
  8
0
 62
     2
  0
POLYLINE
  5
C6BD8
  8
0
 62
     2
 66
     1
 10
0.0
 20
0.0
 30
0.0
  0
VERTEX
  5
CD19F
  8
0
 62
     2
 10
-92.0
 20
26.0
 30
0.0
  0
VERTEX
  5
CD1A0
  8
0
 62
     2
 10
-92.0
 20
46.0
 30
0.0
  0
SEQEND
  5
CD1A1
  8
0
 62
     2
  0
POLYLINE
  5
C6BD9
  8
0
 62
     2
 66
     1
 10
0.0
 20
0.0
 30
0.0
  0
VERTEX
  5
CD1A2
  8
0
 62
     2
 10
-69.0
 20
26.0
 30
0.0
  0
VERTEX
  5
CD1A3
  8
0
 62
     2
 10
-69.0
 20
46.0
 30
0.0
  0
SEQEND
  5
CD1A4
  8
0
 62
     2
  0
ATTDEF
  5
C6BDA
  8
0
 62
     4
 10
-197.186267
 20
7.0
 30
0.0
 40
2.5
  1

 41
0.7
 51
15.0
  3
Index1:
  2
INDEX1
 70
     0
  0
ATTDEF
  5
C6BDB
  8
0
 62
     4
 10
-190.348743
 20
7.0
 30
0.0
 40
2.5
  1

 41
0.7
 51
15.0
  3
Aenderung1:
  2
A1
 70
     0
  0
ATTDEF
  5
C6BDC
  8
0
 62
     4
 10
-157.348743
 20
7.0
 30
0.0
 40
2.5
  1

 41
0.7
 51
15.0
  3
Datum1:
  2
DATUM1
 70
     0
  0
ATTDEF
  5
C6BDD
  8
0
 62
     4
 10
-144.46499
 20
7.0
 30
0.0
 40
2.5
  1

 41
0.7
 51
15.0
  3
Name1:
  2
NAME1
 70
     0
  0
ATTDEF
  5
C6BDE
  8
0
 62
     4
 10
-197.186267
 20
12.0
 30
0.0
 40
2.5
  1

 41
0.7
 51
15.0
  3
Index2:
  2
INDEX2
 70
     0
  0
ATTDEF
  5
C6BDF
  8
0
 62
     4
 10
-190.348743
 20
12.0
 30
0.0
 40
2.5
  1

 41
0.7
 51
15.0
  3
Aenderung2:
  2
A2
 70
     0
  0
ATTDEF
  5
C6BE0
  8
0
 62
     4
 10
-157.348743
 20
12.0
 30
0.0
 40
2.5
  1

 41
0.7
 51
15.0
  3
Datum2:
  2
DATUM2
 70
     0
  0
ATTDEF
  5
C6BE1
  8
0
 62
     4
 10
-144.46499
 20
12.0
 30
0.0
 40
2.5
  1

 41
0.7
 51
15.0
  3
Name2
  2
NAME2
 70
     0
  0
ATTDEF
  5
C6BE2
  8
0
 62
     4
 10
-197.186267
 20
17.0
 30
0.0
 40
2.5
  1

 41
0.7
 51
15.0
  3
Index3:
  2
INDEX3
 70
     0
  0
ATTDEF
  5
C6BE3
  8
0
 62
     4
 10
-190.348743
 20
17.0
 30
0.0
 40
2.5
  1

 41
0.7
 51
15.0
  3
Aenderung3
  2
A3
 70
     0
  0
ATTDEF
  5
C6BE4
  8
0
 62
     4
 10
-157.348743
 20
17.0
 30
0.0
 40
2.5
  1

 41
0.7
 51
15.0
  3
Datum3:
  2
DATUM3
 70
     0
  0
ATTDEF
  5
C6BE5
  8
0
 62
     4
 10
-144.46499
 20
17.0
 30
0.0
 40
2.5
  1

 41
0.7
 51
15.0
  3
Name3:
  2
NAME3
 70
     0
  0
ATTDEF
  5
C6BE6
  8
0
 62
     4
 10
-197.186267
 20
22.0
 30
0.0
 40
2.5
  1

 41
0.7
 51
15.0
  3
Index4:
  2
INDEX4
 70
     0
  0
ATTDEF
  5
C6BE7
  8
0
 62
     4
 10
-190.348743
 20
22.0
 30
0.0
 40
2.5
  1

 41
0.7
 51
15.0
  3
Aenderung4:
  2
A4
 70
     0
  0
ATTDEF
  5
C6BE8
  8
0
 62
     4
 10
-157.348743
 20
22.0
 30
0.0
 40
2.5
  1

 41
0.7
 51
15.0
  3
Datum4:
  2
DATUM4
 70
     0
  0
ATTDEF
  5
C6BE9
  8
0
 62
     4
 10
-144.46499
 20
22.0
 30
0.0
 40
2.5
  1

 41
0.7
 51
15.0
  3
Name4:
  2
NAME4
 70
     0
  0
ATTDEF
  5
C6BEA
  8
0
 62
     4
 10
-197.186267
 20
27.0
 30
0.0
 40
2.5
  1

 41
0.7
 51
15.0
  3
Index5:
  2
INDEX5
 70
     0
  0
ATTDEF
  5
C6BEB
  8
0
 62
     4
 10
-190.348743
 20
27.0
 30
0.0
 40
2.5
  1

 41
0.7
 51
15.0
  3
Aenderung5:
  2
A5
 70
     0
  0
ATTDEF
  5
C6BEC
  8
0
 62
     4
 10
-157.348743
 20
27.0
 30
0.0
 40
2.5
  1

 41
0.7
 51
15.0
  3
Datum5:
  2
DATUM5
 70
     0
  0
ATTDEF
  5
C6BED
  8
0
 62
     4
 10
-144.46499
 20
27.0
 30
0.0
 40
2.5
  1

 41
0.7
 51
15.0
  3
Name5
  2
NAME5
 70
     0
  0
ATTDEF
  5
C6BEE
  8
0
 62
     4
 10
-197.186267
 20
32.0
 30
0.0
 40
2.5
  1

 41
0.7
 51
15.0
  3
Index6:
  2
INDEX6
 70
     0
  0
ATTDEF
  5
C6BEF
  8
0
 62
     4
 10
-190.348743
 20
32.0
 30
0.0
 40
2.5
  1

 41
0.7
 51
15.0
  3
Aenderung6:
  2
A6
 70
     0
  0
ATTDEF
  5
C6BF0
  8
0
 62
     4
 10
-157.348743
 20
32.0
 30
0.0
 40
2.5
  1

 41
0.7
 51
15.0
  3
Datum6:
  2
DATUM6
 70
     0
  0
ATTDEF
  5
C6BF1
  8
0
 62
     4
 10
-144.46499
 20
32.0
 30
0.0
 40
2.5
  1

 41
0.7
 51
15.0
  3
Name6:
  2
NAME6
 70
     0
  0
ATTDEF
  5
C6BF2
  8
0
 62
     4
 10
-197.186267
 20
37.0
 30
0.0
 40
2.5
  1

 41
0.7
 51
15.0
  3
Index7:
  2
INDEX7
 70
     0
  0
ATTDEF
  5
C6BF3
  8
0
 62
     4
 10
-190.348743
 20
37.0
 30
0.0
 40
2.5
  1

 41
0.7
 51
15.0
  3
Aenderung7:
  2
A7
 70
     0
  0
ATTDEF
  5
C6BF4
  8
0
 62
     4
 10
-157.348743
 20
37.0
 30
0.0
 40
2.5
  1

 41
0.7
 51
15.0
  3
Datum7:
  2
DATUM7
 70
     0
  0
ATTDEF
  5
C6BF5
  8
0
 62
     4
 10
-144.46499
 20
37.0
 30
0.0
 40
2.5
  1

 41
0.7
 51
15.0
  3
Name7:
  2
NAME7
 70
     0
  0
ATTDEF
  5
C6BF6
  8
0
 62
     4
 10
-197.186267
 20
42.0
 30
0.0
 40
2.5
  1

 41
0.7
 51
15.0
  3
Index8:
  2
INDEX8
 70
     0
  0
ATTDEF
  5
C6BF7
  8
0
 62
     4
 10
-190.348743
 20
42.0
 30
0.0
 40
2.5
  1

 41
0.7
 51
15.0
  3
Aenderung8:
  2
A8
 70
     0
  0
ATTDEF
  5
C6BF8
  8
0
 62
     4
 10
-157.348743
 20
42.0
 30
0.0
 40
2.5
  1

 41
0.7
 51
15.0
  3
Datum8:
  2
DATUM8
 70
     0
  0
ATTDEF
  5
C6BF9
  8
0
 62
     4
 10
-144.46499
 20
42.0
 30
0.0
 40
2.5
  1

 41
0.7
 51
15.0
  3
Name8:
  2
NAME8
 70
     0
  0
POLYLINE
  5
C6BFA
  8
0
 62
     2
 66
     1
 10
0.0
 20
0.0
 30
0.0
  0
VERTEX
  5
CD1A5
  8
0
 62
     2
 10
0.0
 20
0.0
 30
0.0
  0
VERTEX
  5
CD1A6
  8
0
 62
     2
 10
0.0
 20
46.0
 30
0.0
  0
SEQEND
  5
CD1A7
  8
0
 62
     2
  0
POLYLINE
  5
C6BFB
  8
0
 62
     2
 66
     1
 10
0.0
 20
0.0
 30
0.0
  0
VERTEX
  5
CD1A8
  8
0
 62
     2
 10
-200.0
 20
46.0
 30
0.0
  0
VERTEX
  5
CD1A9
  8
0
 62
     2
 10
-200.0
 20
0.0
 30
0.0
  0
SEQEND
  5
CD1AA
  8
0
 62
     2
  0
POLYLINE
  5
C6BFC
  8
0
 62
     2
 66
     1
 10
0.0
 20
0.0
 30
0.0
  0
VERTEX
  5
CD1AB
  8
0
 62
     2
 10
0.0
 20
9.0
 30
0.0
  0
VERTEX
  5
CD1AC
  8
0
 62
     2
 10
-133.0
 20
9.0
 30
0.0
  0
SEQEND
  5
CD1AD
  8
0
 62
     2
  0
POLYLINE
  5
C6BFD
  8
0
 62
     2
 66
     1
 10
0.0
 20
0.0
 30
0.0
  0
VERTEX
  5
CD1AE
  8
0
 62
     2
 10
0.0
 20
18.0
 30
0.0
  0
VERTEX
  5
CD1AF
  8
0
 62
     2
 10
-51.0
 20
18.0
 30
0.0
  0
SEQEND
  5
CD1B0
  8
0
 62
     2
  0
POLYLINE
  5
C6BFE
  8
0
 62
     2
 66
     1
 10
0.0
 20
0.0
 30
0.0
  0
VERTEX
  5
CD1B1
  8
0
 62
     2
 10
0.0
 20
26.0
 30
0.0
  0
VERTEX
  5
CD1B2
  8
0
 62
     2
 10
-133.0
 20
26.0
 30
0.0
  0
SEQEND
  5
CD1B3
  8
0
 62
     2
  0
POLYLINE
  5
C6BFF
  8
0
 62
     2
 66
     1
 10
0.0
 20
0.0
 30
0.0
  0
VERTEX
  5
CD1B4
  8
0
 62
     2
 10
0.0
 20
31.0
 30
0.0
  0
VERTEX
  5
CD1B5
  8
0
 62
     2
 10
-51.0
 20
31.0
 30
0.0
  0
SEQEND
  5
CD1B6
  8
0
 62
     2
  0
POLYLINE
  5
C6C00
  8
0
 62
     2
 66
     1
 10
0.0
 20
0.0
 30
0.0
  0
VERTEX
  5
CD1B7
  8
0
 62
     2
 10
0.0
 20
36.0
 30
0.0
  0
VERTEX
  5
CD1B8
  8
0
 62
     2
 10
-51.0
 20
36.0
 30
0.0
  0
SEQEND
  5
CD1B9
  8
0
 62
     2
  0
POLYLINE
  5
C6C01
  8
0
 62
     2
 66
     1
 10
0.0
 20
0.0
 30
0.0
  0
VERTEX
  5
CD1BA
  8
0
 62
     2
 10
0.0
 20
41.0
 30
0.0
  0
VERTEX
  5
CD1BB
  8
0
 62
     2
 10
-51.0
 20
41.0
 30
0.0
  0
SEQEND
  5
CD1BC
  8
0
 62
     2
  0
POLYLINE
  5
C6C02
  8
0
 62
     2
 66
     1
 10
0.0
 20
0.0
 30
0.0
  0
VERTEX
  5
CD1BD
  8
0
 62
     2
 10
0.0
 20
46.0
 30
0.0
  0
VERTEX
  5
CD1BE
  8
0
 62
     2
 10
-200.0
 20
46.0
 30
0.0
  0
SEQEND
  5
CD1BF
  8
0
 62
     2
  0
TEXT
  5
C6C03
  8
035
 10
517.653158
 20
512.84859
 30
0.0
 40
3.5
  1
  
 41
0.7
 51
15.0
  0
LINE
  5
C6C04
  8
035
 10
-128.755568
 20
3.208952
 30
0.0
 11
-126.70617
 21
3.208952
 31
0.0
  0
LINE
  5
C6C05
  8
035
 10
-128.094709
 20
6.189896
 30
0.0
 11
-125.672692
 21
6.189896
 31
0.0
  0
LINE
  5
C6C06
  8
035
 10
-128.755568
 20
3.208952
 30
0.0
 11
-128.094709
 21
6.189896
 31
0.0
  0
LINE
  5
C6C07
  8
035
 10
-126.70617
 20
3.208952
 30
0.0
 11
-126.334436
 21
4.885733
 31
0.0
  0
LINE
  5
C6C08
  8
035
 10
-122.1416
 20
3.208952
 30
0.0
 11
-121.48074
 21
6.189896
 31
0.0
  0
LINE
  5
C6C09
  8
035
 10
-123.819265
 20
4.885733
 30
0.0
 11
-123.530139
 21
6.189896
 31
0.0
  0
LINE
  5
C6C0A
  8
035
 10
-126.334436
 20
4.885733
 30
0.0
 11
-124.470462
 21
3.208952
 31
0.0
  0
LINE
  5
C6C0B
  8
035
 10
-125.672692
 20
6.189896
 30
0.0
 11
-123.819265
 21
4.885733
 31
0.0
  0
LINE
  5
C6C0C
  8
035
 10
-123.530139
 20
6.189896
 30
0.0
 11
-121.48074
 21
6.189896
 31
0.0
  0
LINE
  5
C6C0D
  8
035
 10
-124.470462
 20
3.208952
 30
0.0
 11
-122.1416
 21
3.208952
 31
0.0
  0
LINE
  5
C6C0E
  8
035
 10
-121.1169
 20
3.208952
 30
0.0
 11
-120.456041
 21
6.189896
 31
0.0
  0
LINE
  5
C6C0F
  8
035
 10
-118.950452
 20
3.736926
 30
0.0
 11
-118.775644
 21
4.525437
 31
0.0
  0
LINE
  5
C6C10
  8
035
 10
-115.515237
 20
4.525437
 30
0.0
 11
-115.438093
 21
4.873411
 31
0.0
  0
LINE
  5
C6C11
  8
035
 10
-115.527631
 20
3.208952
 30
0.0
 11
-115.410582
 21
3.736926
 31
0.0
  0
LINE
  5
C6C12
  8
035
 10
-121.1169
 20
3.208952
 30
0.0
 11
-115.527631
 21
3.208952
 31
0.0
  0
LINE
  5
C6C13
  8
035
 10
-120.456041
 20
6.189896
 30
0.0
 11
-114.866772
 21
6.189896
 31
0.0
  0
LINE
  5
C6C14
  8
035
 10
-118.6985
 20
4.873411
 30
0.0
 11
-118.523691
 21
5.661922
 31
0.0
  0
LINE
  5
C6C15
  8
035
 10
-114.983821
 20
5.661922
 30
0.0
 11
-114.866772
 21
6.189896
 31
0.0
  0
LINE
  5
C6C16
  8
035
 10
-114.394221
 20
4.119506
 30
0.0
 11
-113.935227
 21
6.189896
 31
0.0
  0
LINE
  5
C6C17
  8
035
 10
-112.293136
 20
4.375928
 30
0.0
 11
-111.890989
 21
6.189896
 31
0.0
  0
LINE
  5
C6C18
  8
035
 10
-110.051948
 20
4.279275
 30
0.0
 11
-109.628373
 21
6.189896
 31
0.0
  0
LINE
  5
C6C19
  8
035
 10
-108.075244
 20
3.974729
 30
0.0
 11
-107.584153
 21
6.189896
 31
0.0
  0
LINE
  5
C6C1A
  8
035
 10
-113.935227
 20
6.189896
 30
0.0
 11
-111.890989
 21
6.189896
 31
0.0
  0
POLYLINE
  5
C6C1B
  8
035
 66
     1
 10
0.0
 20
0.0
 30
0.0
  0
VERTEX
  5
CD1C0
  8
035
 10
-114.394221
 20
4.119506
 30
0.0
 42
0.053304
  0
VERTEX
  5
CD1C1
  8
035
 10
-114.401936
 20
4.047343
 30
0.0
 42
0.242955
  0
SEQEND
  5
CD1C2
  8
035
  0
POLYLINE
  5
C6C1C
  8
035
 66
     1
 10
0.0
 20
0.0
 30
0.0
  0
VERTEX
  5
CD1C3
  8
035
 10
-114.401936
 20
4.047343
 30
0.0
 42
0.242955
  0
VERTEX
  5
CD1C4
  8
035
 10
-114.258214
 20
3.769022
 30
0.0
 42
0.083039
  0
VERTEX
  5
CD1C5
  8
035
 10
-113.474269
 20
3.388641
 30
0.0
 42
0.041229
  0
VERTEX
  5
CD1C6
  8
035
 10
-112.535236
 20
3.194727
 30
0.0
 42
0.030317
  0
VERTEX
  5
CD1C7
  8
035
 10
-111.234684
 20
3.115798
 30
0.0
 42
0.030317
  0
VERTEX
  5
CD1C8
  8
035
 10
-109.934131
 20
3.194727
 30
0.0
 42
0.041229
  0
VERTEX
  5
CD1C9
  8
035
 10
-108.995098
 20
3.388641
 30
0.0
 42
0.083039
  0
VERTEX
  5
CD1CA
  8
035
 10
-108.211153
 20
3.769022
 30
0.0
 42
0.186877
  0
VERTEX
  5
CD1CB
  8
035
 10
-108.075244
 20
3.974729
 30
0.0
 42
0.242955
  0
SEQEND
  5
CD1CC
  8
035
  0
POLYLINE
  5
C6C1D
  8
035
 66
     1
 10
0.0
 20
0.0
 30
0.0
  0
VERTEX
  5
CD1CD
  8
035
 10
-112.298865
 20
4.326806
 30
0.0
 42
0.199105
  0
VERTEX
  5
CD1CE
  8
035
 10
-112.236231
 20
4.175751
 30
0.0
 42
0.098437
  0
VERTEX
  5
CD1CF
  8
035
 10
-111.969027
 20
3.997455
 30
0.0
 42
0.055684
  0
VERTEX
  5
CD1D0
  8
035
 10
-111.63144
 20
3.900043
 30
0.0
 42
0.042444
  0
VERTEX
  5
CD1D1
  8
035
 10
-111.172727
 20
3.861034
 30
0.0
 42
0.042444
  0
VERTEX
  5
CD1D2
  8
035
 10
-110.714014
 20
3.900043
 30
0.0
 42
0.055684
  0
VERTEX
  5
CD1D3
  8
035
 10
-110.376427
 20
3.997455
 30
0.0
 42
0.098437
  0
VERTEX
  5
CD1D4
  8
035
 10
-110.109223
 20
4.175751
 30
0.0
 42
0.141327
  0
VERTEX
  5
CD1D5
  8
035
 10
-110.051948
 20
4.279275
 30
0.0
 42
0.199105
  0
SEQEND
  5
CD1D6
  8
035
  0
POLYLINE
  5
C6C1E
  8
035
 66
     1
 10
0.0
 20
0.0
 30
0.0
  0
VERTEX
  5
CD1D7
  8
035
 10
-112.293136
 20
4.375928
 30
0.0
 42
0.058115
  0
VERTEX
  5
CD1D8
  8
035
 10
-112.298865
 20
4.326806
 30
0.0
 42
0.199105
  0
SEQEND
  5
CD1D9
  8
035
  0
LINE
  5
C6C1F
  8
035
 10
-109.628373
 20
6.189896
 30
0.0
 11
-107.584153
 21
6.189896
 31
0.0
  0
LINE
  5
C6C20
  8
035
 10
-107.207009
 20
5.44466
 30
0.0
 11
-107.041794
 21
6.189896
 31
0.0
  0
LINE
  5
C6C21
  8
035
 10
-105.839564
 20
3.208952
 30
0.0
 11
-105.343919
 21
5.44466
 31
0.0
  0
LINE
  5
C6C22
  8
035
 10
-103.790165
 20
3.208952
 30
0.0
 11
-103.294521
 21
5.44466
 31
0.0
  0
LINE
  5
C6C23
  8
035
 10
-101.338276
 20
5.44466
 30
0.0
 11
-101.173062
 21
6.189896
 31
0.0
  0
LINE
  5
C6C24
  8
035
 10
-107.207009
 20
5.44466
 30
0.0
 11
-105.343919
 21
5.44466
 31
0.0
  0
LINE
  5
C6C25
  8
035
 10
-105.839564
 20
3.208952
 30
0.0
 11
-103.790165
 21
3.208952
 31
0.0
  0
LINE
  5
C6C26
  8
035
 10
-107.041794
 20
6.189896
 30
0.0
 11
-101.173062
 21
6.189896
 31
0.0
  0
LINE
  5
C6C27
  8
035
 10
-103.294521
 20
5.44466
 30
0.0
 11
-101.338276
 21
5.44466
 31
0.0
  0
LINE
  5
C6C28
  8
035
 10
-101.181839
 20
3.208952
 30
0.0
 11
-100.52098
 21
6.189896
 31
0.0
  0
LINE
  5
C6C29
  8
035
 10
-99.132441
 20
3.208952
 30
0.0
 11
-98.886017
 21
4.320497
 31
0.0
  0
LINE
  5
C6C2A
  8
035
 10
-101.181839
 20
3.208952
 30
0.0
 11
-99.132441
 21
3.208952
 31
0.0
  0
LINE
  5
C6C2B
  8
035
 10
-100.52098
 20
6.189896
 30
0.0
 11
-95.290929
 21
6.189896
 31
0.0
  0
LINE
  5
C6C2C
  8
035
 10
-94.918675
 20
3.520906
 30
0.0
 11
-94.870132
 21
4.215096
 31
0.0
  0
LINE
  5
C6C2D
  8
035
 10
-96.97328
 20
3.446451
 30
0.0
 11
-96.935761
 21
3.992515
 31
0.0
  0
LINE
  5
C6C2E
  8
035
 10
-98.808873
 20
4.668471
 30
0.0
 11
-98.58863
 21
5.661922
 31
0.0
  0
ARC
  5
C6C2F
  8
035
 10
-94.454037
 20
3.488416
 30
0.0
 40
0.465772
 50
176.0
 51
216.869898
  0
ARC
  5
C6C30
  8
035
 10
-96.524732
 20
3.452495
 30
0.0
 40
0.448589
 50
180.772005
 51
212.881875
  0
LINE
  5
C6C31
  8
035
 10
-96.901453
 20
3.208952
 30
0.0
 11
-94.826655
 21
3.208952
 31
0.0
  0
POLYLINE
  5
C6C32
  8
035
 66
     1
 10
0.0
 20
0.0
 30
0.0
  0
VERTEX
  5
CD1DA
  8
035
 10
-94.870132
 20
4.215096
 30
0.0
 42
0.084831
  0
VERTEX
  5
CD1DB
  8
035
 10
-94.880776
 20
4.329788
 30
0.0
 42
0.153048
  0
VERTEX
  5
CD1DC
  8
035
 10
-94.99037
 20
4.50246
 30
0.0
 42
0.025315
  0
VERTEX
  5
CD1DD
  8
035
 10
-95.045479
 20
4.544432
 30
0.0
 42
0.067948
  0
SEQEND
  5
CD1DE
  8
035
  0
POLYLINE
  5
C6C33
  8
035
 66
     1
 10
0.0
 20
0.0
 30
0.0
  0
VERTEX
  5
CD1DF
  8
035
 10
-95.045479
 20
4.544432
 30
0.0
 42
0.015369
  0
VERTEX
  5
CD1E0
  8
035
 10
-94.909079
 20
4.61424
 30
0.0
 42
0.073981
  0
VERTEX
  5
CD1E1
  8
035
 10
-94.516614
 20
4.9135
 30
0.0
 42
0.106894
  0
VERTEX
  5
CD1E2
  8
035
 10
-94.271191
 20
5.306124
 30
0.0
 42
0.153048
  0
VERTEX
  5
CD1E3
  8
035
 10
-94.257471
 20
5.63306
 30
0.0
 42
0.153048
  0
VERTEX
  5
CD1E4
  8
035
 10
-94.432821
 20
5.909336
 30
0.0
 42
0.106894
  0
VERTEX
  5
CD1E5
  8
035
 10
-94.841676
 20
6.126646
 30
0.0
 42
0.067948
  0
VERTEX
  5
CD1E6
  8
035
 10
-95.290929
 20
6.189896
 30
0.0
 42
0.060566
  0
SEQEND
  5
CD1E7
  8
035
  0
LINE
  5
C6C34
  8
035
 10
-93.915789
 20
3.208952
 30
0.0
 11
-93.25493
 21
6.189896
 31
0.0
  0
LINE
  5
C6C35
  8
035
 10
-91.866391
 20
3.208952
 30
0.0
 11
-91.205531
 21
6.189896
 31
0.0
  0
LINE
  5
C6C36
  8
035
 10
-93.915789
 20
3.208952
 30
0.0
 11
-91.866391
 21
3.208952
 31
0.0
  0
LINE
  5
C6C37
  8
035
 10
-93.25493
 20
6.189896
 30
0.0
 11
-91.205531
 21
6.189896
 31
0.0
  0
LINE
  5
C6C38
  8
035
 10
-90.655382
 20
3.208952
 30
0.0
 11
-89.994523
 21
6.189896
 31
0.0
  0
LINE
  5
C6C39
  8
035
 10
-88.699138
 20
3.208952
 30
0.0
 11
-88.533923
 21
3.954188
 31
0.0
  0
LINE
  5
C6C3A
  8
035
 10
-89.994523
 20
6.189896
 30
0.0
 11
-88.038279
 21
6.189896
 31
0.0
  0
LINE
  5
C6C3B
  8
035
 10
-90.655382
 20
3.208952
 30
0.0
 11
-88.699138
 21
3.208952
 31
0.0
  0
LINE
  5
C6C3C
  8
035
 10
-88.533923
 20
3.954188
 30
0.0
 11
-87.659503
 21
4.326806
 31
0.0
  0
LINE
  5
C6C3D
  8
035
 10
-88.261805
 20
5.181636
 30
0.0
 11
-85.895725
 21
6.189896
 31
0.0
  0
LINE
  5
C6C3E
  8
035
 10
-85.895725
 20
6.189896
 30
0.0
 11
-83.2874
 21
6.189896
 31
0.0
  0
LINE
  5
C6C3F
  8
035
 10
-87.659503
 20
4.326806
 30
0.0
 11
-86.556585
 21
3.208952
 31
0.0
  0
LINE
  5
C6C40
  8
035
 10
-85.692056
 20
5.165197
 30
0.0
 11
-83.76195
 21
3.208952
 31
0.0
  0
LINE
  5
C6C41
  8
035
 10
-85.692056
 20
5.165197
 30
0.0
 11
-83.2874
 21
6.189896
 31
0.0
  0
LINE
  5
C6C42
  8
035
 10
-88.261805
 20
5.181636
 30
0.0
 11
-88.038279
 21
6.189896
 31
0.0
  0
LINE
  5
C6C43
  8
035
 10
-86.556585
 20
3.208952
 30
0.0
 11
-83.76195
 21
3.208952
 31
0.0
  0
TEXT
  5
C6C44
  8
035
 62
     4
 10
-78.273305
 20
3.264636
 30
0.0
 40
2.484848
  1
NINGBO CHINA
 41
0.85
 51
15.0
  7
HELV
  0
LINE
  5
C6C45
  8
035
 10
-118.523691
 20
5.661922
 30
0.0
 11
-114.983821
 21
5.661922
 31
0.0
  0
LINE
  5
C6C46
  8
035
 10
-118.6985
 20
4.873411
 30
0.0
 11
-115.438093
 21
4.873411
 31
0.0
  0
LINE
  5
C6C47
  8
035
 10
-118.775644
 20
4.525437
 30
0.0
 11
-115.515237
 21
4.525437
 31
0.0
  0
LINE
  5
C6C48
  8
035
 10
-118.950452
 20
3.736926
 30
0.0
 11
-115.410582
 21
3.736926
 31
0.0
  0
LINE
  5
C6C49
  8
0
 62
     4
 10
-83.394402
 20
6.144299
 30
0.0
 11
-83.348805
 21
6.189896
 31
0.0
  0
LINE
  5
C6C4A
  8
0
 62
     4
 10
-83.784164
 20
3.208952
 30
0.0
 11
-83.772982
 21
3.220134
 31
0.0
  0
LINE
  5
C6C4B
  8
035
 10
-98.58863
 20
5.661922
 30
0.0
 11
-96.900758
 21
5.661922
 31
0.0
  0
LINE
  5
C6C4C
  8
035
 10
-98.808873
 20
4.668471
 30
0.0
 11
-97.176482
 21
4.668471
 31
0.0
  0
LINE
  5
C6C4D
  8
035
 10
-98.886017
 20
4.320497
 30
0.0
 11
-97.147355
 21
4.320497
 31
0.0
  0
LINE
  5
C6C4E
  8
035
 10
-96.900758
 20
5.661922
 30
0.0
 11
-96.767538
 21
5.640125
 31
0.0
  0
LINE
  5
C6C4F
  8
035
 10
-96.767538
 20
5.640125
 30
0.0
 11
-96.652102
 21
5.581648
 31
0.0
  0
LINE
  5
C6C50
  8
035
 10
-96.652102
 20
5.581648
 30
0.0
 11
-96.596691
 21
5.492396
 31
0.0
  0
LINE
  5
C6C51
  8
035
 10
-96.596691
 20
5.492396
 30
0.0
 11
-96.553596
 21
5.384678
 31
0.0
  0
LINE
  5
C6C52
  8
035
 10
-96.553596
 20
5.384678
 30
0.0
 11
-96.552055
 21
5.267729
 31
0.0
  0
LINE
  5
C6C53
  8
035
 10
-96.552055
 20
5.267729
 30
0.0
 11
-96.564368
 21
5.098457
 31
0.0
  0
LINE
  5
C6C54
  8
035
 10
-96.564368
 20
5.098457
 30
0.0
 11
-96.625938
 21
4.995358
 31
0.0
  0
LINE
  5
C6C55
  8
035
 10
-96.625938
 20
4.995358
 30
0.0
 11
-96.735215
 21
4.867633
 31
0.0
  0
LINE
  5
C6C56
  8
035
 10
-96.735215
 20
4.867633
 30
0.0
 11
-96.899908
 21
4.769148
 31
0.0
  0
LINE
  5
C6C57
  8
035
 10
-96.899908
 20
4.769148
 30
0.0
 11
-97.056904
 21
4.68913
 31
0.0
  0
LINE
  5
C6C58
  8
035
 10
-97.056904
 20
4.68913
 30
0.0
 11
-97.176482
 21
4.668471
 31
0.0
  0
LINE
  5
C6C59
  8
035
 10
-97.147355
 20
4.320497
 30
0.0
 11
-97.047898
 21
4.306505
 31
0.0
  0
LINE
  5
C6C5A
  8
035
 10
-97.047898
 20
4.306505
 30
0.0
 11
-96.984057
 21
4.266129
 31
0.0
  0
LINE
  5
C6C5B
  8
035
 10
-96.984057
 20
4.266129
 30
0.0
 11
-96.944974
 21
4.202303
 31
0.0
  0
LINE
  5
C6C5C
  8
035
 10
-96.944974
 20
4.202303
 30
0.0
 11
-96.926734
 21
4.125454
 31
0.0
  0
LINE
  5
C6C5D
  8
035
 10
-96.926734
 20
4.125454
 30
0.0
 11
-96.935761
 21
3.992515
 31
0.0
  0
LINE
  5
C6C5E
  8
035
 62
     3
 10
-99.397082
 20
3.208952
 30
0.0
 11
-99.05706
 21
3.548975
 31
0.0
  0
LINE
  5
C6C5F
  8
035
 62
     3
 10
-96.944113
 20
5.661922
 30
0.0
 11
-96.416138
 21
6.189896
 31
0.0
  0
LINE
  5
C6C60
  8
035
 62
     3
 10
-98.285537
 20
4.320497
 30
0.0
 11
-97.937563
 21
4.668471
 31
0.0
  0
LINE
  5
C6C61
  8
035
 62
     3
 10
-99.77892
 20
3.208952
 30
0.0
 11
-98.948296
 21
4.039576
 31
0.0
  0
LINE
  5
C6C62
  8
035
 62
     3
 10
-97.32595
 20
5.661922
 30
0.0
 11
-96.797976
 21
6.189896
 31
0.0
  0
LINE
  5
C6C63
  8
035
 62
     3
 10
-98.667375
 20
4.320497
 30
0.0
 11
-98.319401
 21
4.668471
 31
0.0
  0
LINE
  5
C6C64
  8
035
 62
     3
 10
-100.160757
 20
3.208952
 30
0.0
 11
-98.701238
 21
4.668471
 31
0.0
  0
LINE
  5
C6C65
  8
035
 62
     3
 10
-97.707788
 20
5.661922
 30
0.0
 11
-97.179814
 21
6.189896
 31
0.0
  0
LINE
  5
C6C66
  8
035
 62
     3
 10
-100.542595
 20
3.208952
 30
0.0
 11
-98.730768
 21
5.020779
 31
0.0
  0
LINE
  5
C6C67
  8
035
 62
     3
 10
-98.089626
 20
5.661922
 30
0.0
 11
-97.561651
 21
6.189896
 31
0.0
  0
LINE
  5
C6C68
  8
035
 62
     3
 10
-100.924433
 20
3.208952
 30
0.0
 11
-98.622005
 21
5.51138
 31
0.0
  0
LINE
  5
C6C69
  8
035
 62
     3
 10
-98.471463
 20
5.661922
 30
0.0
 11
-97.943489
 21
6.189896
 31
0.0
  0
LINE
  5
C6C6A
  8
035
 62
     3
 10
-101.146396
 20
3.368826
 30
0.0
 11
-98.325327
 21
6.189896
 31
0.0
  0
LINE
  5
C6C6B
  8
035
 62
     3
 10
-101.037633
 20
3.859428
 30
0.0
 11
-98.707164
 21
6.189896
 31
0.0
  0
LINE
  5
C6C6C
  8
035
 62
     3
 10
-100.928869
 20
4.350029
 30
0.0
 11
-99.089002
 21
6.189896
 31
0.0
  0
LINE
  5
C6C6D
  8
035
 62
     3
 10
-100.820105
 20
4.840631
 30
0.0
 11
-99.47084
 21
6.189896
 31
0.0
  0
LINE
  5
C6C6E
  8
035
 62
     3
 10
-100.711341
 20
5.331232
 30
0.0
 11
-99.852677
 21
6.189896
 31
0.0
  0
LINE
  5
C6C6F
  8
035
 62
     3
 10
-100.602578
 20
5.821833
 30
0.0
 11
-100.234515
 21
6.189896
 31
0.0
  0
LINE
  5
C6C70
  8
035
 62
     3
 10
-101.361589
 20
5.44466
 30
0.0
 11
-101.331636
 21
5.474613
 31
0.0
  0
LINE
  5
C6C71
  8
035
 62
     3
 10
-103.979134
 20
3.208952
 30
0.0
 11
-103.736339
 21
3.451748
 31
0.0
  0
LINE
  5
C6C72
  8
035
 62
     3
 10
-101.743426
 20
5.44466
 30
0.0
 11
-101.222872
 21
5.965214
 31
0.0
  0
LINE
  5
C6C73
  8
035
 62
     3
 10
-104.360972
 20
3.208952
 30
0.0
 11
-103.627575
 21
3.942349
 31
0.0
  0
LINE
  5
C6C74
  8
035
 62
     3
 10
-102.125264
 20
5.44466
 30
0.0
 11
-101.380028
 21
6.189896
 31
0.0
  0
LINE
  5
C6C75
  8
035
 62
     3
 10
-104.742809
 20
3.208952
 30
0.0
 11
-103.518811
 21
4.43295
 31
0.0
  0
LINE
  5
C6C76
  8
035
 62
     3
 10
-102.507102
 20
5.44466
 30
0.0
 11
-101.761866
 21
6.189896
 31
0.0
  0
LINE
  5
C6C77
  8
035
 62
     3
 10
-105.124647
 20
3.208952
 30
0.0
 11
-103.410048
 21
4.923552
 31
0.0
  0
LINE
  5
C6C78
  8
035
 62
     3
 10
-102.888939
 20
5.44466
 30
0.0
 11
-102.143703
 21
6.189896
 31
0.0
  0
LINE
  5
C6C79
  8
035
 62
     3
 10
-105.506485
 20
3.208952
 30
0.0
 11
-103.301284
 21
5.414153
 31
0.0
  0
LINE
  5
C6C7A
  8
035
 62
     3
 10
-103.270777
 20
5.44466
 30
0.0
 11
-102.525541
 21
6.189896
 31
0.0
  0
LINE
  5
C6C7B
  8
035
 62
     3
 10
-105.825675
 20
3.271599
 30
0.0
 11
-102.907379
 21
6.189896
 31
0.0
  0
LINE
  5
C6C7C
  8
035
 62
     3
 10
-105.716912
 20
3.762201
 30
0.0
 11
-103.289216
 21
6.189896
 31
0.0
  0
LINE
  5
C6C7D
  8
035
 62
     3
 10
-105.608148
 20
4.252802
 30
0.0
 11
-103.671054
 21
6.189896
 31
0.0
  0
LINE
  5
C6C7E
  8
035
 62
     3
 10
-105.499384
 20
4.743403
 30
0.0
 11
-104.052892
 21
6.189896
 31
0.0
  0
LINE
  5
C6C7F
  8
035
 62
     3
 10
-105.390621
 20
5.234005
 30
0.0
 11
-104.434729
 21
6.189896
 31
0.0
  0
LINE
  5
C6C80
  8
035
 62
     3
 10
-105.561803
 20
5.44466
 30
0.0
 11
-104.816567
 21
6.189896
 31
0.0
  0
LINE
  5
C6C81
  8
035
 62
     3
 10
-105.943641
 20
5.44466
 30
0.0
 11
-105.198405
 21
6.189896
 31
0.0
  0
LINE
  5
C6C82
  8
035
 62
     3
 10
-106.325478
 20
5.44466
 30
0.0
 11
-105.580242
 21
6.189896
 31
0.0
  0
LINE
  5
C6C83
  8
035
 62
     3
 10
-108.622384
 20
3.529592
 30
0.0
 11
-108.046189
 21
4.105787
 31
0.0
  0
LINE
  5
C6C84
  8
035
 62
     3
 10
-106.707316
 20
5.44466
 30
0.0
 11
-105.96208
 21
6.189896
 31
0.0
  0
LINE
  5
C6C85
  8
035
 62
     3
 10
-109.201876
 20
3.331938
 30
0.0
 11
-107.937425
 21
4.596388
 31
0.0
  0
LINE
  5
C6C86
  8
035
 62
     3
 10
-107.089154
 20
5.44466
 30
0.0
 11
-106.343918
 21
6.189896
 31
0.0
  0
LINE
  5
C6C87
  8
035
 62
     3
 10
-109.685113
 20
3.230539
 30
0.0
 11
-107.828661
 21
5.08699
 31
0.0
  0
LINE
  5
C6C88
  8
035
 62
     3
 10
-107.131816
 20
5.783835
 30
0.0
 11
-106.725755
 21
6.189896
 31
0.0
  0
LINE
  5
C6C89
  8
035
 62
     3
 10
-110.124204
 20
3.173285
 30
0.0
 11
-107.719898
 21
5.577591
 31
0.0
  0
LINE
  5
C6C8A
  8
035
 62
     3
 10
-110.541142
 20
3.138184
 30
0.0
 11
-107.611134
 21
6.068193
 31
0.0
  0
LINE
  5
C6C8B
  8
035
 62
     3
 10
-110.941366
 20
3.119799
 30
0.0
 11
-107.871268
 21
6.189896
 31
0.0
  0
LINE
  5
C6C8C
  8
035
 62
     3
 10
-111.32681
 20
3.116192
 30
0.0
 11
-110.486292
 21
3.95671
 31
0.0
  0
LINE
  5
C6C8D
  8
035
 62
     3
 10
-110.020108
 20
4.422893
 30
0.0
 11
-108.253106
 21
6.189896
 31
0.0
  0
LINE
  5
C6C8E
  8
035
 62
     3
 10
-111.699013
 20
3.125826
 30
0.0
 11
-110.955072
 21
3.869767
 31
0.0
  0
LINE
  5
C6C8F
  8
035
 62
     3
 10
-109.911345
 20
4.913495
 30
0.0
 11
-108.634944
 21
6.189896
 31
0.0
  0
LINE
  5
C6C90
  8
035
 62
     3
 10
-112.059224
 20
3.147453
 30
0.0
 11
-111.34046
 21
3.866217
 31
0.0
  0
LINE
  5
C6C91
  8
035
 62
     3
 10
-109.802581
 20
5.404096
 30
0.0
 11
-109.016781
 21
6.189896
 31
0.0
  0
LINE
  5
C6C92
  8
035
 62
     3
 10
-112.408468
 20
3.180046
 30
0.0
 11
-111.679477
 21
3.909038
 31
0.0
  0
LINE
  5
C6C93
  8
035
 62
     3
 10
-109.693817
 20
5.894698
 30
0.0
 11
-109.398619
 21
6.189896
 31
0.0
  0
LINE
  5
C6C94
  8
035
 62
     3
 10
-112.746026
 20
3.224326
 30
0.0
 11
-111.971761
 21
3.998592
 31
0.0
  0
LINE
  5
C6C95
  8
035
 62
     3
 10
-113.06743
 20
3.28476
 30
0.0
 11
-112.205545
 21
4.146645
 31
0.0
  0
LINE
  5
C6C96
  8
035
 62
     3
 10
-113.373926
 20
3.360102
 30
0.0
 11
-112.274632
 21
4.459396
 31
0.0
  0
LINE
  5
C6C97
  8
035
 62
     3
 10
-113.66365
 20
3.452215
 30
0.0
 11
-112.165868
 21
4.949997
 31
0.0
  0
LINE
  5
C6C98
  8
035
 62
     3
 10
-113.928373
 20
3.56933
 30
0.0
 11
-112.057104
 21
5.440599
 31
0.0
  0
LINE
  5
C6C99
  8
035
 62
     3
 10
-114.170311
 20
3.70923
 30
0.0
 11
-111.948341
 21
5.9312
 31
0.0
  0
LINE
  5
C6C9A
  8
035
 62
     3
 10
-114.366163
 20
3.895216
 30
0.0
 11
-112.071483
 21
6.189896
 31
0.0
  0
LINE
  5
C6C9B
  8
035
 62
     3
 10
-114.357337
 20
4.285879
 30
0.0
 11
-112.45332
 21
6.189896
 31
0.0
  0
LINE
  5
C6C9C
  8
035
 62
     3
 10
-115.816102
 20
3.208952
 30
0.0
 11
-115.445462
 21
3.579592
 31
0.0
  0
LINE
  5
C6C9D
  8
035
 62
     3
 10
-114.248573
 20
4.776481
 30
0.0
 11
-112.835158
 21
6.189896
 31
0.0
  0
LINE
  5
C6C9E
  8
035
 62
     3
 10
-116.197939
 20
3.208952
 30
0.0
 11
-115.669965
 21
3.736926
 31
0.0
  0
LINE
  5
C6C9F
  8
035
 62
     3
 10
-114.13981
 20
5.267082
 30
0.0
 11
-113.216996
 21
6.189896
 31
0.0
  0
LINE
  5
C6CA0
  8
035
 62
     3
 10
-116.579777
 20
3.208952
 30
0.0
 11
-116.051803
 21
3.736926
 31
0.0
  0
LINE
  5
C6CA1
  8
035
 62
     3
 10
-114.031046
 20
5.757683
 30
0.0
 11
-113.598833
 21
6.189896
 31
0.0
  0
LINE
  5
C6CA2
  8
035
 62
     3
 10
-116.961615
 20
3.208952
 30
0.0
 11
-116.43364
 21
3.736926
 31
0.0
  0
LINE
  5
C6CA3
  8
035
 62
     3
 10
-115.64513
 20
4.525437
 30
0.0
 11
-115.478238
 21
4.692329
 31
0.0
  0
LINE
  5
C6CA4
  8
035
 62
     3
 10
-117.343452
 20
3.208952
 30
0.0
 11
-116.815478
 21
3.736926
 31
0.0
  0
LINE
  5
C6CA5
  8
035
 62
     3
 10
-116.026967
 20
4.525437
 30
0.0
 11
-115.678993
 21
4.873411
 31
0.0
  0
LINE
  5
C6CA6
  8
035
 62
     3
 10
-117.72529
 20
3.208952
 30
0.0
 11
-117.197316
 21
3.736926
 31
0.0
  0
LINE
  5
C6CA7
  8
035
 62
     3
 10
-115.27232
 20
5.661922
 30
0.0
 11
-114.901643
 21
6.032599
 31
0.0
  0
LINE
  5
C6CA8
  8
035
 62
     3
 10
-116.408805
 20
4.525437
 30
0.0
 11
-116.060831
 21
4.873411
 31
0.0
  0
LINE
  5
C6CA9
  8
035
 62
     3
 10
-118.107128
 20
3.208952
 30
0.0
 11
-117.579153
 21
3.736926
 31
0.0
  0
LINE
  5
C6CAA
  8
035
 62
     3
 10
-115.654158
 20
5.661922
 30
0.0
 11
-115.126184
 21
6.189896
 31
0.0
  0
LINE
  5
C6CAB
  8
035
 62
     3
 10
-116.790643
 20
4.525437
 30
0.0
 11
-116.442669
 21
4.873411
 31
0.0
  0
LINE
  5
C6CAC
  8
035
 62
     3
 10
-118.488965
 20
3.208952
 30
0.0
 11
-117.960991
 21
3.736926
 31
0.0
  0
LINE
  5
C6CAD
  8
035
 62
     3
 10
-116.035996
 20
5.661922
 30
0.0
 11
-115.508022
 21
6.189896
 31
0.0
  0
LINE
  5
C6CAE
  8
035
 62
     3
 10
-117.17248
 20
4.525437
 30
0.0
 11
-116.824506
 21
4.873411
 31
0.0
  0
LINE
  5
C6CAF
  8
035
 62
     3
 10
-118.870803
 20
3.208952
 30
0.0
 11
-118.342829
 21
3.736926
 31
0.0
  0
LINE
  5
C6CB0
  8
035
 62
     3
 10
-116.417833
 20
5.661922
 30
0.0
 11
-115.889859
 21
6.189896
 31
0.0
  0
LINE
  5
C6CB1
  8
035
 62
     3
 10
-117.554318
 20
4.525437
 30
0.0
 11
-117.206344
 21
4.873411
 31
0.0
  0
LINE
  5
C6CB2
  8
035
 62
     3
 10
-119.252641
 20
3.208952
 30
0.0
 11
-118.724666
 21
3.736926
 31
0.0
  0
LINE
  5
C6CB3
  8
035
 62
     3
 10
-116.799671
 20
5.661922
 30
0.0
 11
-116.271697
 21
6.189896
 31
0.0
  0
LINE
  5
C6CB4
  8
035
 62
     3
 10
-117.936156
 20
4.525437
 30
0.0
 11
-117.588182
 21
4.873411
 31
0.0
  0
LINE
  5
C6CB5
  8
035
 62
     3
 10
-119.634478
 20
3.208952
 30
0.0
 11
-118.906002
 21
3.937428
 31
0.0
  0
LINE
  5
C6CB6
  8
035
 62
     3
 10
-117.181509
 20
5.661922
 30
0.0
 11
-116.653535
 21
6.189896
 31
0.0
  0
LINE
  5
C6CB7
  8
035
 62
     3
 10
-118.317993
 20
4.525437
 30
0.0
 11
-117.970019
 21
4.873411
 31
0.0
  0
LINE
  5
C6CB8
  8
035
 62
     3
 10
-120.016316
 20
3.208952
 30
0.0
 11
-118.797238
 21
4.42803
 31
0.0
  0
LINE
  5
C6CB9
  8
035
 62
     3
 10
-117.563346
 20
5.661922
 30
0.0
 11
-117.035372
 21
6.189896
 31
0.0
  0
LINE
  5
C6CBA
  8
035
 62
     3
 10
-118.699831
 20
4.525437
 30
0.0
 11
-118.351857
 21
4.873411
 31
0.0
  0
LINE
  5
C6CBB
  8
035
 62
     3
 10
-120.398154
 20
3.208952
 30
0.0
 11
-118.688475
 21
4.918631
 31
0.0
  0
LINE
  5
C6CBC
  8
035
 62
     3
 10
-117.945184
 20
5.661922
 30
0.0
 11
-117.41721
 21
6.189896
 31
0.0
  0
LINE
  5
C6CBD
  8
035
 62
     3
 10
-120.779991
 20
3.208952
 30
0.0
 11
-118.579711
 21
5.409232
 31
0.0
  0
LINE
  5
C6CBE
  8
035
 62
     3
 10
-118.327022
 20
5.661922
 30
0.0
 11
-117.799048
 21
6.189896
 31
0.0
  0
LINE
  5
C6CBF
  8
035
 62
     3
 10
-121.104103
 20
3.266678
 30
0.0
 11
-118.180885
 21
6.189896
 31
0.0
  0
LINE
  5
C6CC0
  8
035
 62
     3
 10
-120.995339
 20
3.75728
 30
0.0
 11
-118.562723
 21
6.189896
 31
0.0
  0
LINE
  5
C6CC1
  8
035
 62
     3
 10
-120.886575
 20
4.247881
 30
0.0
 11
-118.944561
 21
6.189896
 31
0.0
  0
LINE
  5
C6CC2
  8
035
 62
     3
 10
-122.307342
 20
3.208952
 30
0.0
 11
-122.094389
 21
3.421905
 31
0.0
  0
LINE
  5
C6CC3
  8
035
 62
     3
 10
-120.777811
 20
4.738483
 30
0.0
 11
-119.326398
 21
6.189896
 31
0.0
  0
LINE
  5
C6CC4
  8
035
 62
     3
 10
-122.68918
 20
3.208952
 30
0.0
 11
-121.985625
 21
3.912506
 31
0.0
  0
LINE
  5
C6CC5
  8
035
 62
     3
 10
-120.669048
 20
5.229084
 30
0.0
 11
-119.708236
 21
6.189896
 31
0.0
  0
LINE
  5
C6CC6
  8
035
 62
     3
 10
-123.071017
 20
3.208952
 30
0.0
 11
-121.876862
 21
4.403108
 31
0.0
  0
LINE
  5
C6CC7
  8
035
 62
     3
 10
-120.560284
 20
5.719685
 30
0.0
 11
-120.090074
 21
6.189896
 31
0.0
  0
LINE
  5
C6CC8
  8
035
 62
     3
 10
-123.452855
 20
3.208952
 30
0.0
 11
-121.768098
 21
4.893709
 31
0.0
  0
LINE
  5
C6CC9
  8
035
 62
     3
 10
-123.834692
 20
3.208952
 30
0.0
 11
-121.659334
 21
5.38431
 31
0.0
  0
LINE
  5
C6CCA
  8
035
 62
     3
 10
-124.21653
 20
3.208952
 30
0.0
 11
-121.550571
 21
5.874912
 31
0.0
  0
LINE
  5
C6CCB
  8
035
 62
     3
 10
-124.537796
 20
3.269524
 30
0.0
 11
-121.617424
 21
6.189896
 31
0.0
  0
LINE
  5
C6CCC
  8
035
 62
     3
 10
-124.738808
 20
3.450349
 30
0.0
 11
-121.999262
 21
6.189896
 31
0.0
  0
LINE
  5
C6CCD
  8
035
 62
     3
 10
-124.939821
 20
3.631175
 30
0.0
 11
-122.381099
 21
6.189896
 31
0.0
  0
LINE
  5
C6CCE
  8
035
 62
     3
 10
-125.140833
 20
3.812
 30
0.0
 11
-123.964738
 21
4.988095
 31
0.0
  0
LINE
  5
C6CCF
  8
035
 62
     3
 10
-123.748671
 20
5.204162
 30
0.0
 11
-122.762937
 21
6.189896
 31
0.0
  0
LINE
  5
C6CD0
  8
035
 62
     3
 10
-125.341845
 20
3.992825
 30
0.0
 11
-124.188867
 21
5.145803
 31
0.0
  0
LINE
  5
C6CD1
  8
035
 62
     3
 10
-123.639907
 20
5.694763
 30
0.0
 11
-123.144775
 21
6.189896
 31
0.0
  0
LINE
  5
C6CD2
  8
035
 62
     3
 10
-125.542858
 20
4.173651
 30
0.0
 11
-124.412997
 21
5.303512
 31
0.0
  0
LINE
  5
C6CD3
  8
035
 62
     3
 10
-123.531144
 20
6.185365
 30
0.0
 11
-123.526612
 21
6.189896
 31
0.0
  0
LINE
  5
C6CD4
  8
035
 62
     3
 10
-126.889394
 20
3.208952
 30
0.0
 11
-126.653979
 21
3.444367
 31
0.0
  0
LINE
  5
C6CD5
  8
035
 62
     3
 10
-125.74387
 20
4.354476
 30
0.0
 11
-124.637126
 21
5.46122
 31
0.0
  0
LINE
  5
C6CD6
  8
035
 62
     3
 10
-127.271231
 20
3.208952
 30
0.0
 11
-126.545216
 21
3.934968
 31
0.0
  0
LINE
  5
C6CD7
  8
035
 62
     3
 10
-125.944883
 20
4.535301
 30
0.0
 11
-124.861255
 21
5.618929
 31
0.0
  0
LINE
  5
C6CD8
  8
035
 62
     3
 10
-127.653069
 20
3.208952
 30
0.0
 11
-126.436452
 21
4.425569
 31
0.0
  0
LINE
  5
C6CD9
  8
035
 62
     3
 10
-126.145895
 20
4.716126
 30
0.0
 11
-125.085384
 21
5.776637
 31
0.0
  0
LINE
  5
C6CDA
  8
035
 62
     3
 10
-128.034907
 20
3.208952
 30
0.0
 11
-125.309514
 21
5.934345
 31
0.0
  0
LINE
  5
C6CDB
  8
035
 62
     3
 10
-128.416744
 20
3.208952
 30
0.0
 11
-125.533643
 21
6.092054
 31
0.0
  0
LINE
  5
C6CDC
  8
035
 62
     3
 10
-128.743316
 20
3.264218
 30
0.0
 11
-125.817638
 21
6.189896
 31
0.0
  0
LINE
  5
C6CDD
  8
035
 62
     3
 10
-128.634552
 20
3.75482
 30
0.0
 11
-126.199476
 21
6.189896
 31
0.0
  0
LINE
  5
C6CDE
  8
035
 62
     3
 10
-128.525789
 20
4.245421
 30
0.0
 11
-126.581314
 21
6.189896
 31
0.0
  0
LINE
  5
C6CDF
  8
035
 62
     3
 10
-128.417025
 20
4.736022
 30
0.0
 11
-126.963151
 21
6.189896
 31
0.0
  0
LINE
  5
C6CE0
  8
035
 62
     3
 10
-128.308261
 20
5.226624
 30
0.0
 11
-127.344989
 21
6.189896
 31
0.0
  0
LINE
  5
C6CE1
  8
035
 62
     3
 10
-128.199498
 20
5.717225
 30
0.0
 11
-127.726827
 21
6.189896
 31
0.0
  0
LINE
  5
C6CE2
  8
035
 62
     3
 10
-97.9037
 20
4.320497
 30
0.0
 11
-97.555725
 21
4.668471
 31
0.0
  0
LINE
  5
C6CE3
  8
035
 62
     3
 10
-96.648443
 20
5.575754
 30
0.0
 11
-96.034301
 21
6.189896
 31
0.0
  0
LINE
  5
C6CE4
  8
035
 62
     3
 10
-97.521862
 20
4.320497
 30
0.0
 11
-97.173346
 21
4.669013
 31
0.0
  0
LINE
  5
C6CE5
  8
035
 62
     3
 10
-96.552349
 20
5.29001
 30
0.0
 11
-95.652463
 21
6.189896
 31
0.0
  0
LINE
  5
C6CE6
  8
035
 62
     3
 10
-97.140928
 20
4.319593
 30
0.0
 11
-95.27083
 21
6.189691
 31
0.0
  0
LINE
  5
C6CE7
  8
035
 62
     3
 10
-96.931816
 20
4.146867
 30
0.0
 11
-94.929703
 21
6.148981
 31
0.0
  0
LINE
  5
C6CE8
  8
035
 62
     3
 10
-96.952835
 20
3.744011
 30
0.0
 11
-94.646299
 21
6.050547
 31
0.0
  0
LINE
  5
C6CE9
  8
035
 62
     3
 10
-96.962122
 20
3.352887
 30
0.0
 11
-94.418346
 21
5.896663
 31
0.0
  0
LINE
  5
C6CEA
  8
035
 62
     3
 10
-96.724219
 20
3.208952
 30
0.0
 11
-94.267355
 21
5.665815
 31
0.0
  0
LINE
  5
C6CEB
  8
035
 62
     3
 10
-96.342381
 20
3.208952
 30
0.0
 11
-95.02298
 21
4.528353
 31
0.0
  0
LINE
  5
C6CEC
  8
035
 62
     3
 10
-94.969135
 20
4.582198
 30
0.0
 11
-94.28736
 21
5.263973
 31
0.0
  0
LINE
  5
C6CED
  8
035
 62
     3
 10
-95.960543
 20
3.208952
 30
0.0
 11
-94.873526
 21
4.295969
 31
0.0
  0
LINE
  5
C6CEE
  8
035
 62
     3
 10
-93.333356
 20
5.836139
 30
0.0
 11
-92.9796
 21
6.189896
 31
0.0
  0
LINE
  5
C6CEF
  8
035
 62
     3
 10
-95.578706
 20
3.208952
 30
0.0
 11
-94.892505
 21
3.895153
 31
0.0
  0
LINE
  5
C6CF0
  8
035
 62
     3
 10
-93.44212
 20
5.345538
 30
0.0
 11
-92.597762
 21
6.189896
 31
0.0
  0
LINE
  5
C6CF1
  8
035
 62
     3
 10
-95.196868
 20
3.208952
 30
0.0
 11
-94.919803
 21
3.486017
 31
0.0
  0
LINE
  5
C6CF2
  8
035
 62
     3
 10
-93.550883
 20
4.854937
 30
0.0
 11
-92.215924
 21
6.189896
 31
0.0
  0
LINE
  5
C6CF3
  8
035
 62
     3
 10
-93.659647
 20
4.364335
 30
0.0
 11
-91.834087
 21
6.189896
 31
0.0
  0
LINE
  5
C6CF4
  8
035
 62
     3
 10
-93.768411
 20
3.873734
 30
0.0
 11
-91.452249
 21
6.189896
 31
0.0
  0
LINE
  5
C6CF5
  8
035
 62
     3
 10
-93.877174
 20
3.383133
 30
0.0
 11
-91.244019
 21
6.016288
 31
0.0
  0
LINE
  5
C6CF6
  8
035
 62
     3
 10
-93.669517
 20
3.208952
 30
0.0
 11
-91.352783
 21
5.525687
 31
0.0
  0
LINE
  5
C6CF7
  8
035
 62
     3
 10
-93.28768
 20
3.208952
 30
0.0
 11
-91.461547
 21
5.035085
 31
0.0
  0
LINE
  5
C6CF8
  8
035
 62
     3
 10
-92.905842
 20
3.208952
 30
0.0
 11
-91.57031
 21
4.544484
 31
0.0
  0
LINE
  5
C6CF9
  8
035
 62
     3
 10
-90.014355
 20
6.100439
 30
0.0
 11
-89.924898
 21
6.189896
 31
0.0
  0
LINE
  5
C6CFA
  8
035
 62
     3
 10
-92.524004
 20
3.208952
 30
0.0
 11
-91.679074
 21
4.053882
 31
0.0
  0
LINE
  5
C6CFB
  8
035
 62
     3
 10
-90.123119
 20
5.609838
 30
0.0
 11
-89.543061
 21
6.189896
 31
0.0
  0
LINE
  5
C6CFC
  8
035
 62
     3
 10
-92.142167
 20
3.208952
 30
0.0
 11
-91.787838
 21
3.563281
 31
0.0
  0
LINE
  5
C6CFD
  8
035
 62
     3
 10
-90.231882
 20
5.119236
 30
0.0
 11
-89.161223
 21
6.189896
 31
0.0
  0
LINE
  5
C6CFE
  8
035
 62
     3
 10
-90.340646
 20
4.628635
 30
0.0
 11
-88.779385
 21
6.189896
 31
0.0
  0
LINE
  5
C6CFF
  8
035
 62
     3
 10
-90.44941
 20
4.138034
 30
0.0
 11
-88.397548
 21
6.189896
 31
0.0
  0
LINE
  5
C6D00
  8
035
 62
     3
 10
-90.558173
 20
3.647432
 30
0.0
 11
-88.044707
 21
6.160899
 31
0.0
  0
LINE
  5
C6D01
  8
035
 62
     3
 10
-90.614816
 20
3.208952
 30
0.0
 11
-88.153471
 21
5.670297
 31
0.0
  0
LINE
  5
C6D02
  8
035
 62
     3
 10
-90.232978
 20
3.208952
 30
0.0
 11
-88.259174
 21
5.182756
 31
0.0
  0
LINE
  5
C6D03
  8
035
 62
     3
 10
-89.851141
 20
3.208952
 30
0.0
 11
-87.593799
 21
5.466293
 31
0.0
  0
LINE
  5
C6D04
  8
035
 62
     3
 10
-89.469303
 20
3.208952
 30
0.0
 11
-86.928425
 21
5.74983
 31
0.0
  0
LINE
  5
C6D05
  8
035
 62
     3
 10
-89.087465
 20
3.208952
 30
0.0
 11
-88.588526
 21
3.707892
 31
0.0
  0
LINE
  5
C6D06
  8
035
 62
     3
 10
-88.199885
 20
4.096532
 30
0.0
 11
-86.26305
 21
6.033367
 31
0.0
  0
LINE
  5
C6D07
  8
035
 62
     3
 10
-88.705628
 20
3.208952
 30
0.0
 11
-88.697289
 21
3.21729
 31
0.0
  0
LINE
  5
C6D08
  8
035
 62
     3
 10
-87.623879
 20
4.2907
 30
0.0
 11
-85.724684
 21
6.189896
 31
0.0
  0
LINE
  5
C6D09
  8
035
 62
     3
 10
-87.434245
 20
4.098498
 30
0.0
 11
-85.342846
 21
6.189896
 31
0.0
  0
LINE
  5
C6D0A
  8
035
 62
     3
 10
-87.24461
 20
3.906295
 30
0.0
 11
-84.961009
 21
6.189896
 31
0.0
  0
LINE
  5
C6D0B
  8
035
 62
     3
 10
-87.054975
 20
3.714092
 30
0.0
 11
-85.64826
 21
5.120807
 31
0.0
  0
LINE
  5
C6D0C
  8
035
 62
     3
 10
-85.538387
 20
5.23068
 30
0.0
 11
-84.579171
 21
6.189896
 31
0.0
  0
LINE
  5
C6D0D
  8
035
 62
     3
 10
-86.86534
 20
3.521889
 30
0.0
 11
-85.458625
 21
4.928604
 31
0.0
  0
LINE
  5
C6D0E
  8
035
 62
     3
 10
-84.873013
 20
5.514217
 30
0.0
 11
-84.197333
 21
6.189896
 31
0.0
  0
LINE
  5
C6D0F
  8
035
 62
     3
 10
-86.675705
 20
3.329686
 30
0.0
 11
-85.26899
 21
4.736401
 31
0.0
  0
LINE
  5
C6D10
  8
035
 62
     3
 10
-84.207638
 20
5.797754
 30
0.0
 11
-83.815496
 21
6.189896
 31
0.0
  0
LINE
  5
C6D11
  8
035
 62
     3
 10
-86.414602
 20
3.208952
 30
0.0
 11
-85.079355
 21
4.544198
 31
0.0
  0
LINE
  5
C6D12
  8
035
 62
     3
 10
-83.542263
 20
6.08129
 30
0.0
 11
-83.433658
 21
6.189896
 31
0.0
  0
LINE
  5
C6D13
  8
035
 62
     3
 10
-86.032764
 20
3.208952
 30
0.0
 11
-84.889721
 21
4.351996
 31
0.0
  0
LINE
  5
C6D14
  8
035
 62
     3
 10
-85.650926
 20
3.208952
 30
0.0
 11
-84.700086
 21
4.159793
 31
0.0
  0
LINE
  5
C6D15
  8
035
 62
     3
 10
-85.269089
 20
3.208952
 30
0.0
 11
-84.510451
 21
3.96759
 31
0.0
  0
LINE
  5
C6D16
  8
035
 62
     3
 10
-84.887251
 20
3.208952
 30
0.0
 11
-84.320816
 21
3.775387
 31
0.0
  0
LINE
  5
C6D17
  8
035
 62
     3
 10
-84.505413
 20
3.208952
 30
0.0
 11
-84.131182
 21
3.583184
 31
0.0
  0
LINE
  5
C6D18
  8
035
 62
     3
 10
-84.123576
 20
3.208952
 30
0.0
 11
-83.941547
 21
3.390981
 31
0.0
  0
LINE
  5
C6D19
  8
035
 62
     3
 10
-96.613061
 20
3.208952
 30
0.0
 11
-96.96539
 21
3.561281
 31
0.0
  0
LINE
  5
C6D1A
  8
035
 62
     3
 10
-98.675262
 20
5.271153
 30
0.0
 11
-99.594005
 21
6.189896
 31
0.0
  0
LINE
  5
C6D1B
  8
035
 62
     3
 10
-97.724606
 20
4.320497
 30
0.0
 11
-98.07258
 21
4.668471
 31
0.0
  0
LINE
  5
C6D1C
  8
035
 62
     3
 10
-98.106444
 20
4.320497
 30
0.0
 11
-98.454418
 21
4.668471
 31
0.0
  0
LINE
  5
C6D1D
  8
035
 62
     3
 10
-98.744552
 20
4.958605
 30
0.0
 11
-99.975843
 21
6.189896
 31
0.0
  0
LINE
  5
C6D1E
  8
035
 62
     3
 10
-98.488282
 20
4.320497
 30
0.0
 11
-100.35768
 21
6.189896
 31
0.0
  0
LINE
  5
C6D1F
  8
035
 62
     3
 10
-98.870119
 20
4.320497
 30
0.0
 11
-100.560637
 21
6.011015
 31
0.0
  0
LINE
  5
C6D20
  8
035
 62
     3
 10
-98.952422
 20
4.020963
 30
0.0
 11
-100.629927
 21
5.698467
 31
0.0
  0
LINE
  5
C6D21
  8
035
 62
     3
 10
-99.021712
 20
3.708415
 30
0.0
 11
-100.699217
 21
5.38592
 31
0.0
  0
LINE
  5
C6D22
  8
035
 62
     3
 10
-101.232969
 20
5.919672
 30
0.0
 11
-101.503193
 21
6.189896
 31
0.0
  0
LINE
  5
C6D23
  8
035
 62
     3
 10
-99.091003
 20
3.395868
 30
0.0
 11
-100.768507
 21
5.073372
 31
0.0
  0
LINE
  5
C6D24
  8
035
 62
     3
 10
-101.302259
 20
5.607124
 30
0.0
 11
-101.885031
 21
6.189896
 31
0.0
  0
LINE
  5
C6D25
  8
035
 62
     3
 10
-99.285925
 20
3.208952
 30
0.0
 11
-100.837798
 21
4.760825
 31
0.0
  0
LINE
  5
C6D26
  8
035
 62
     3
 10
-101.521633
 20
5.44466
 30
0.0
 11
-102.266869
 21
6.189896
 31
0.0
  0
LINE
  5
C6D27
  8
035
 62
     3
 10
-99.667763
 20
3.208952
 30
0.0
 11
-100.907088
 21
4.448277
 31
0.0
  0
LINE
  5
C6D28
  8
035
 62
     3
 10
-101.90347
 20
5.44466
 30
0.0
 11
-102.648706
 21
6.189896
 31
0.0
  0
LINE
  5
C6D29
  8
035
 62
     3
 10
-100.0496
 20
3.208952
 30
0.0
 11
-100.976378
 21
4.13573
 31
0.0
  0
LINE
  5
C6D2A
  8
035
 62
     3
 10
-102.285308
 20
5.44466
 30
0.0
 11
-103.030544
 21
6.189896
 31
0.0
  0
LINE
  5
C6D2B
  8
035
 62
     3
 10
-100.431438
 20
3.208952
 30
0.0
 11
-101.045668
 21
3.823182
 31
0.0
  0
LINE
  5
C6D2C
  8
035
 62
     3
 10
-102.667146
 20
5.44466
 30
0.0
 11
-103.412382
 21
6.189896
 31
0.0
  0
LINE
  5
C6D2D
  8
035
 62
     3
 10
-100.813276
 20
3.208952
 30
0.0
 11
-101.114958
 21
3.510635
 31
0.0
  0
LINE
  5
C6D2E
  8
035
 62
     3
 10
-103.048983
 20
5.44466
 30
0.0
 11
-103.794219
 21
6.189896
 31
0.0
  0
LINE
  5
C6D2F
  8
035
 62
     3
 10
-103.319254
 20
5.333093
 30
0.0
 11
-104.176057
 21
6.189896
 31
0.0
  0
LINE
  5
C6D30
  8
035
 62
     3
 10
-103.388545
 20
5.020546
 30
0.0
 11
-104.557895
 21
6.189896
 31
0.0
  0
LINE
  5
C6D31
  8
035
 62
     3
 10
-103.457835
 20
4.707998
 30
0.0
 11
-104.939732
 21
6.189896
 31
0.0
  0
LINE
  5
C6D32
  8
035
 62
     3
 10
-103.527125
 20
4.395451
 30
0.0
 11
-105.32157
 21
6.189896
 31
0.0
  0
LINE
  5
C6D33
  8
035
 62
     3
 10
-103.596415
 20
4.082903
 30
0.0
 11
-105.703408
 21
6.189896
 31
0.0
  0
LINE
  5
C6D34
  8
035
 62
     3
 10
-103.665705
 20
3.770356
 30
0.0
 11
-106.085245
 21
6.189896
 31
0.0
  0
LINE
  5
C6D35
  8
035
 62
     3
 10
-103.734995
 20
3.457808
 30
0.0
 11
-105.4125
 21
5.135313
 31
0.0
  0
LINE
  5
C6D36
  8
035
 62
     3
 10
-105.721847
 20
5.44466
 30
0.0
 11
-106.467083
 21
6.189896
 31
0.0
  0
LINE
  5
C6D37
  8
035
 62
     3
 10
-103.867977
 20
3.208952
 30
0.0
 11
-105.48179
 21
4.822765
 31
0.0
  0
LINE
  5
C6D38
  8
035
 62
     3
 10
-106.103685
 20
5.44466
 30
0.0
 11
-106.848921
 21
6.189896
 31
0.0
  0
LINE
  5
C6D39
  8
035
 62
     3
 10
-104.249815
 20
3.208952
 30
0.0
 11
-105.55108
 21
4.510218
 31
0.0
  0
LINE
  5
C6D3A
  8
035
 62
     3
 10
-106.485522
 20
5.44466
 30
0.0
 11
-107.076085
 21
6.035222
 31
0.0
  0
LINE
  5
C6D3B
  8
035
 62
     3
 10
-104.631652
 20
3.208952
 30
0.0
 11
-105.62037
 21
4.19767
 31
0.0
  0
LINE
  5
C6D3C
  8
035
 62
     3
 10
-107.589314
 20
6.166614
 30
0.0
 11
-107.612596
 21
6.189896
 31
0.0
  0
LINE
  5
C6D3D
  8
035
 62
     3
 10
-106.86736
 20
5.44466
 30
0.0
 11
-107.145375
 21
5.722675
 31
0.0
  0
LINE
  5
C6D3E
  8
035
 62
     3
 10
-105.01349
 20
3.208952
 30
0.0
 11
-105.689661
 21
3.885123
 31
0.0
  0
LINE
  5
C6D3F
  8
035
 62
     3
 10
-107.658605
 20
5.854067
 30
0.0
 11
-107.994434
 21
6.189896
 31
0.0
  0
LINE
  5
C6D40
  8
035
 62
     3
 10
-105.395328
 20
3.208952
 30
0.0
 11
-105.758951
 21
3.572575
 31
0.0
  0
LINE
  5
C6D41
  8
035
 62
     3
 10
-107.727895
 20
5.541519
 30
0.0
 11
-108.376271
 21
6.189896
 31
0.0
  0
LINE
  5
C6D42
  8
035
 62
     3
 10
-105.777165
 20
3.208952
 30
0.0
 11
-105.828241
 21
3.260028
 31
0.0
  0
LINE
  5
C6D43
  8
035
 62
     3
 10
-107.797185
 20
5.228972
 30
0.0
 11
-108.758109
 21
6.189896
 31
0.0
  0
LINE
  5
C6D44
  8
035
 62
     3
 10
-107.866475
 20
4.916424
 30
0.0
 11
-109.139947
 21
6.189896
 31
0.0
  0
LINE
  5
C6D45
  8
035
 62
     3
 10
-107.935765
 20
4.603877
 30
0.0
 11
-109.521784
 21
6.189896
 31
0.0
  0
LINE
  5
C6D46
  8
035
 62
     3
 10
-108.005055
 20
4.291329
 30
0.0
 11
-109.678321
 21
5.964595
 31
0.0
  0
LINE
  5
C6D47
  8
035
 62
     3
 10
-108.074345
 20
3.978782
 30
0.0
 11
-109.747611
 21
5.652048
 31
0.0
  0
LINE
  5
C6D48
  8
035
 62
     3
 10
-108.231865
 20
3.754464
 30
0.0
 11
-109.816902
 21
5.3395
 31
0.0
  0
LINE
  5
C6D49
  8
035
 62
     3
 10
-108.467497
 20
3.608258
 30
0.0
 11
-109.886192
 21
5.026953
 31
0.0
  0
LINE
  5
C6D4A
  8
035
 62
     3
 10
-108.725252
 20
3.484176
 30
0.0
 11
-109.955482
 21
4.714405
 31
0.0
  0
LINE
  5
C6D4B
  8
035
 62
     3
 10
-109.007827
 20
3.384913
 30
0.0
 11
-110.024772
 21
4.401858
 31
0.0
  0
LINE
  5
C6D4C
  8
035
 62
     3
 10
-109.310216
 20
3.305464
 30
0.0
 11
-110.145981
 21
4.141229
 31
0.0
  0
LINE
  5
C6D4D
  8
035
 62
     3
 10
-111.946093
 20
5.941341
 30
0.0
 11
-112.194648
 21
6.189896
 31
0.0
  0
LINE
  5
C6D4E
  8
035
 62
     3
 10
-109.627062
 20
3.240473
 30
0.0
 11
-110.381824
 21
3.995235
 31
0.0
  0
LINE
  5
C6D4F
  8
035
 62
     3
 10
-112.015383
 20
5.628793
 30
0.0
 11
-112.576485
 21
6.189896
 31
0.0
  0
LINE
  5
C6D50
  8
035
 62
     3
 10
-109.960031
 20
3.191604
 30
0.0
 11
-110.67555
 21
3.907123
 31
0.0
  0
LINE
  5
C6D51
  8
035
 62
     3
 10
-112.084673
 20
5.316246
 30
0.0
 11
-112.958323
 21
6.189896
 31
0.0
  0
LINE
  5
C6D52
  8
035
 62
     3
 10
-110.306217
 20
3.155952
 30
0.0
 11
-111.015833
 21
3.865568
 31
0.0
  0
LINE
  5
C6D53
  8
035
 62
     3
 10
-112.153963
 20
5.003698
 30
0.0
 11
-113.340161
 21
6.189896
 31
0.0
  0
LINE
  5
C6D54
  8
035
 62
     3
 10
-110.663101
 20
3.130998
 30
0.0
 11
-111.402906
 21
3.870803
 31
0.0
  0
LINE
  5
C6D55
  8
035
 62
     3
 10
-112.223253
 20
4.69115
 30
0.0
 11
-113.721998
 21
6.189896
 31
0.0
  0
LINE
  5
C6D56
  8
035
 62
     3
 10
-111.031655
 20
3.117714
 30
0.0
 11
-111.876456
 21
3.962515
 31
0.0
  0
LINE
  5
C6D57
  8
035
 62
     3
 10
-112.292543
 20
4.378603
 30
0.0
 11
-113.965823
 21
6.051883
 31
0.0
  0
LINE
  5
C6D58
  8
035
 62
     3
 10
-111.413055
 20
3.117277
 30
0.0
 11
-114.035113
 21
5.739336
 31
0.0
  0
LINE
  5
C6D59
  8
035
 62
     3
 10
-111.808746
 20
3.13113
 30
0.0
 11
-114.104404
 21
5.426788
 31
0.0
  0
LINE
  5
C6D5A
  8
035
 62
     3
 10
-114.866906
 20
6.18929
 30
0.0
 11
-114.867511
 21
6.189896
 31
0.0
  0
LINE
  5
C6D5B
  8
035
 62
     3
 10
-112.220533
 20
3.16108
 30
0.0
 11
-114.173694
 21
5.11424
 31
0.0
  0
LINE
  5
C6D5C
  8
035
 62
     3
 10
-114.936196
 20
5.876743
 30
0.0
 11
-115.249349
 21
6.189896
 31
0.0
  0
LINE
  5
C6D5D
  8
035
 62
     3
 10
-112.651351
 20
3.21006
 30
0.0
 11
-114.242984
 21
4.801693
 31
0.0
  0
LINE
  5
C6D5E
  8
035
 62
     3
 10
-115.103213
 20
5.661922
 30
0.0
 11
-115.631187
 21
6.189896
 31
0.0
  0
LINE
  5
C6D5F
  8
035
 62
     3
 10
-113.119437
 20
3.296308
 30
0.0
 11
-114.312274
 21
4.489145
 31
0.0
  0
LINE
  5
C6D60
  8
035
 62
     3
 10
-115.48505
 20
5.661922
 30
0.0
 11
-116.013024
 21
6.189896
 31
0.0
  0
LINE
  5
C6D61
  8
035
 62
     3
 10
-113.653284
 20
3.448318
 30
0.0
 11
-114.381564
 21
4.176598
 31
0.0
  0
LINE
  5
C6D62
  8
035
 62
     3
 10
-115.866888
 20
5.661922
 30
0.0
 11
-116.394862
 21
6.189896
 31
0.0
  0
LINE
  5
C6D63
  8
035
 62
     3
 10
-115.442107
 20
4.855303
 30
0.0
 11
-115.460215
 21
4.873411
 31
0.0
  0
LINE
  5
C6D64
  8
035
 62
     3
 10
-116.248726
 20
5.661922
 30
0.0
 11
-116.7767
 21
6.189896
 31
0.0
  0
LINE
  5
C6D65
  8
035
 62
     3
 10
-115.511397
 20
4.542756
 30
0.0
 11
-115.842053
 21
4.873411
 31
0.0
  0
LINE
  5
C6D66
  8
035
 62
     3
 10
-116.630563
 20
5.661922
 30
0.0
 11
-117.158537
 21
6.189896
 31
0.0
  0
LINE
  5
C6D67
  8
035
 62
     3
 10
-115.875916
 20
4.525437
 30
0.0
 11
-116.22389
 21
4.873411
 31
0.0
  0
LINE
  5
C6D68
  8
035
 62
     3
 10
-117.012401
 20
5.661922
 30
0.0
 11
-117.540375
 21
6.189896
 31
0.0
  0
LINE
  5
C6D69
  8
035
 62
     3
 10
-115.421227
 20
3.68891
 30
0.0
 11
-115.469243
 21
3.736926
 31
0.0
  0
LINE
  5
C6D6A
  8
035
 62
     3
 10
-117.394239
 20
5.661922
 30
0.0
 11
-117.922213
 21
6.189896
 31
0.0
  0
LINE
  5
C6D6B
  8
035
 62
     3
 10
-116.257754
 20
4.525437
 30
0.0
 11
-116.605728
 21
4.873411
 31
0.0
  0
LINE
  5
C6D6C
  8
035
 62
     3
 10
-115.490517
 20
3.376362
 30
0.0
 11
-115.851081
 21
3.736926
 31
0.0
  0
LINE
  5
C6D6D
  8
035
 62
     3
 10
-117.776076
 20
5.661922
 30
0.0
 11
-118.30405
 21
6.189896
 31
0.0
  0
LINE
  5
C6D6E
  8
035
 62
     3
 10
-116.639592
 20
4.525437
 30
0.0
 11
-116.987566
 21
4.873411
 31
0.0
  0
LINE
  5
C6D6F
  8
035
 62
     3
 10
-115.704944
 20
3.208952
 30
0.0
 11
-116.232919
 21
3.736926
 31
0.0
  0
LINE
  5
C6D70
  8
035
 62
     3
 10
-118.157914
 20
5.661922
 30
0.0
 11
-118.685888
 21
6.189896
 31
0.0
  0
LINE
  5
C6D71
  8
035
 62
     3
 10
-117.021429
 20
4.525437
 30
0.0
 11
-117.369403
 21
4.873411
 31
0.0
  0
LINE
  5
C6D72
  8
035
 62
     3
 10
-116.086782
 20
3.208952
 30
0.0
 11
-116.614756
 21
3.736926
 31
0.0
  0
LINE
  5
C6D73
  8
035
 62
     3
 10
-118.526606
 20
5.648776
 30
0.0
 11
-119.067726
 21
6.189896
 31
0.0
  0
LINE
  5
C6D74
  8
035
 62
     3
 10
-117.403267
 20
4.525437
 30
0.0
 11
-117.751241
 21
4.873411
 31
0.0
  0
LINE
  5
C6D75
  8
035
 62
     3
 10
-116.46862
 20
3.208952
 30
0.0
 11
-116.996594
 21
3.736926
 31
0.0
  0
LINE
  5
C6D76
  8
035
 62
     3
 10
-118.595896
 20
5.336228
 30
0.0
 11
-119.449563
 21
6.189896
 31
0.0
  0
LINE
  5
C6D77
  8
035
 62
     3
 10
-117.785104
 20
4.525437
 30
0.0
 11
-118.133079
 21
4.873411
 31
0.0
  0
LINE
  5
C6D78
  8
035
 62
     3
 10
-116.850457
 20
3.208952
 30
0.0
 11
-117.378432
 21
3.736926
 31
0.0
  0
LINE
  5
C6D79
  8
035
 62
     3
 10
-118.665186
 20
5.023681
 30
0.0
 11
-119.831401
 21
6.189896
 31
0.0
  0
LINE
  5
C6D7A
  8
035
 62
     3
 10
-118.166942
 20
4.525437
 30
0.0
 11
-118.514916
 21
4.873411
 31
0.0
  0
LINE
  5
C6D7B
  8
035
 62
     3
 10
-117.232295
 20
3.208952
 30
0.0
 11
-117.760269
 21
3.736926
 31
0.0
  0
LINE
  5
C6D7C
  8
035
 62
     3
 10
-118.54878
 20
4.525437
 30
0.0
 11
-120.213239
 21
6.189896
 31
0.0
  0
LINE
  5
C6D7D
  8
035
 62
     3
 10
-117.614133
 20
3.208952
 30
0.0
 11
-118.142107
 21
3.736926
 31
0.0
  0
LINE
  5
C6D7E
  8
035
 62
     3
 10
-118.803766
 20
4.398586
 30
0.0
 11
-120.481271
 21
6.07609
 31
0.0
  0
LINE
  5
C6D7F
  8
035
 62
     3
 10
-117.99597
 20
3.208952
 30
0.0
 11
-118.523944
 21
3.736926
 31
0.0
  0
LINE
  5
C6D80
  8
035
 62
     3
 10
-118.873056
 20
4.086038
 30
0.0
 11
-120.550561
 21
5.763543
 31
0.0
  0
LINE
  5
C6D81
  8
035
 62
     3
 10
-118.377808
 20
3.208952
 30
0.0
 11
-118.905782
 21
3.736926
 31
0.0
  0
LINE
  5
C6D82
  8
035
 62
     3
 10
-118.942346
 20
3.773491
 30
0.0
 11
-120.619851
 21
5.450995
 31
0.0
  0
LINE
  5
C6D83
  8
035
 62
     3
 10
-118.759646
 20
3.208952
 30
0.0
 11
-120.689141
 21
5.138448
 31
0.0
  0
LINE
  5
C6D84
  8
035
 62
     3
 10
-121.527894
 20
5.9772
 30
0.0
 11
-121.740589
 21
6.189896
 31
0.0
  0
LINE
  5
C6D85
  8
035
 62
     3
 10
-119.141483
 20
3.208952
 30
0.0
 11
-120.758431
 21
4.8259
 31
0.0
  0
LINE
  5
C6D86
  8
035
 62
     3
 10
-121.597184
 20
5.664653
 30
0.0
 11
-122.122427
 21
6.189896
 31
0.0
  0
LINE
  5
C6D87
  8
035
 62
     3
 10
-119.523321
 20
3.208952
 30
0.0
 11
-120.827722
 21
4.513353
 31
0.0
  0
LINE
  5
C6D88
  8
035
 62
     3
 10
-121.666474
 20
5.352105
 30
0.0
 11
-122.504265
 21
6.189896
 31
0.0
  0
LINE
  5
C6D89
  8
035
 62
     3
 10
-119.905159
 20
3.208952
 30
0.0
 11
-120.897012
 21
4.200805
 31
0.0
  0
LINE
  5
C6D8A
  8
035
 62
     3
 10
-121.735764
 20
5.039558
 30
0.0
 11
-122.886102
 21
6.189896
 31
0.0
  0
LINE
  5
C6D8B
  8
035
 62
     3
 10
-120.286996
 20
3.208952
 30
0.0
 11
-120.966302
 21
3.888258
 31
0.0
  0
LINE
  5
C6D8C
  8
035
 62
     3
 10
-121.805054
 20
4.72701
 30
0.0
 11
-123.26794
 21
6.189896
 31
0.0
  0
LINE
  5
C6D8D
  8
035
 62
     3
 10
-120.668834
 20
3.208952
 30
0.0
 11
-121.035592
 21
3.57571
 31
0.0
  0
LINE
  5
C6D8E
  8
035
 62
     3
 10
-121.874344
 20
4.414463
 30
0.0
 11
-123.551849
 21
6.091967
 31
0.0
  0
LINE
  5
C6D8F
  8
035
 62
     3
 10
-121.050672
 20
3.208952
 30
0.0
 11
-121.104882
 21
3.263163
 31
0.0
  0
LINE
  5
C6D90
  8
035
 62
     3
 10
-121.943634
 20
4.101915
 30
0.0
 11
-123.621139
 21
5.77942
 31
0.0
  0
LINE
  5
C6D91
  8
035
 62
     3
 10
-122.012925
 20
3.789368
 30
0.0
 11
-123.690429
 21
5.466872
 31
0.0
  0
LINE
  5
C6D92
  8
035
 62
     3
 10
-122.082215
 20
3.47682
 30
0.0
 11
-123.75972
 21
5.154325
 31
0.0
  0
LINE
  5
C6D93
  8
035
 62
     3
 10
-122.196185
 20
3.208952
 30
0.0
 11
-124.000471
 21
5.013238
 31
0.0
  0
LINE
  5
C6D94
  8
035
 62
     3
 10
-122.578022
 20
3.208952
 30
0.0
 11
-125.288936
 21
5.919866
 31
0.0
  0
LINE
  5
C6D95
  8
035
 62
     3
 10
-122.95986
 20
3.208952
 30
0.0
 11
-125.940804
 21
6.189896
 31
0.0
  0
LINE
  5
C6D96
  8
035
 62
     3
 10
-123.341698
 20
3.208952
 30
0.0
 11
-126.322641
 21
6.189896
 31
0.0
  0
LINE
  5
C6D97
  8
035
 62
     3
 10
-123.723535
 20
3.208952
 30
0.0
 11
-126.704479
 21
6.189896
 31
0.0
  0
LINE
  5
C6D98
  8
035
 62
     3
 10
-124.105373
 20
3.208952
 30
0.0
 11
-127.086317
 21
6.189896
 31
0.0
  0
LINE
  5
C6D99
  8
035
 62
     3
 10
-124.637238
 20
3.358979
 30
0.0
 11
-127.468154
 21
6.189896
 31
0.0
  0
LINE
  5
C6D9A
  8
035
 62
     3
 10
-126.372797
 20
4.712701
 30
0.0
 11
-127.849992
 21
6.189896
 31
0.0
  0
LINE
  5
C6D9B
  8
035
 62
     3
 10
-126.442087
 20
4.400153
 30
0.0
 11
-128.119592
 21
6.077658
 31
0.0
  0
LINE
  5
C6D9C
  8
035
 62
     3
 10
-126.511377
 20
4.087605
 30
0.0
 11
-128.188882
 21
5.76511
 31
0.0
  0
LINE
  5
C6D9D
  8
035
 62
     3
 10
-126.580667
 20
3.775058
 30
0.0
 11
-128.258172
 21
5.452563
 31
0.0
  0
LINE
  5
C6D9E
  8
035
 62
     3
 10
-126.649957
 20
3.46251
 30
0.0
 11
-128.327462
 21
5.140015
 31
0.0
  0
LINE
  5
C6D9F
  8
035
 62
     3
 10
-126.778237
 20
3.208952
 30
0.0
 11
-128.396752
 21
4.827468
 31
0.0
  0
LINE
  5
C6DA0
  8
035
 62
     3
 10
-127.160074
 20
3.208952
 30
0.0
 11
-128.466042
 21
4.51492
 31
0.0
  0
LINE
  5
C6DA1
  8
035
 62
     3
 10
-127.541912
 20
3.208952
 30
0.0
 11
-128.535332
 21
4.202373
 31
0.0
  0
LINE
  5
C6DA2
  8
035
 62
     3
 10
-127.92375
 20
3.208952
 30
0.0
 11
-128.604622
 21
3.889825
 31
0.0
  0
LINE
  5
C6DA3
  8
035
 62
     3
 10
-128.305587
 20
3.208952
 30
0.0
 11
-128.673913
 21
3.577278
 31
0.0
  0
LINE
  5
C6DA4
  8
035
 62
     3
 10
-128.687425
 20
3.208952
 30
0.0
 11
-128.743203
 21
3.26473
 31
0.0
  0
LINE
  5
C6DA5
  8
035
 62
     3
 10
-96.231224
 20
3.208952
 30
0.0
 11
-96.940841
 21
3.91857
 31
0.0
  0
LINE
  5
C6DA6
  8
035
 62
     3
 10
-98.605972
 20
5.5837
 30
0.0
 11
-99.212167
 21
6.189896
 31
0.0
  0
LINE
  5
C6DA7
  8
035
 62
     3
 10
-97.342769
 20
4.320497
 30
0.0
 11
-97.690743
 21
4.668471
 31
0.0
  0
LINE
  5
C6DA8
  8
035
 62
     3
 10
-95.849386
 20
3.208952
 30
0.0
 11
-97.308905
 21
4.668471
 31
0.0
  0
LINE
  5
C6DA9
  8
035
 62
     3
 10
-98.302356
 20
5.661922
 30
0.0
 11
-98.83033
 21
6.189896
 31
0.0
  0
LINE
  5
C6DAA
  8
035
 62
     3
 10
-95.467548
 20
3.208952
 30
0.0
 11
-96.984586
 21
4.725989
 31
0.0
  0
LINE
  5
C6DAB
  8
035
 62
     3
 10
-97.920518
 20
5.661922
 30
0.0
 11
-98.448492
 21
6.189896
 31
0.0
  0
LINE
  5
C6DAC
  8
035
 62
     3
 10
-95.085711
 20
3.208952
 30
0.0
 11
-96.740958
 21
4.864199
 31
0.0
  0
LINE
  5
C6DAD
  8
035
 62
     3
 10
-97.53868
 20
5.661922
 30
0.0
 11
-98.066654
 21
6.189896
 31
0.0
  0
LINE
  5
C6DAE
  8
035
 62
     3
 10
-94.914729
 20
3.419808
 30
0.0
 11
-96.575215
 21
5.080294
 31
0.0
  0
LINE
  5
C6DAF
  8
035
 62
     3
 10
-97.156843
 20
5.661922
 30
0.0
 11
-97.684817
 21
6.189896
 31
0.0
  0
LINE
  5
C6DB0
  8
035
 62
     3
 10
-94.900069
 20
3.786986
 30
0.0
 11
-96.59083
 21
5.477747
 31
0.0
  0
LINE
  5
C6DB1
  8
035
 62
     3
 10
-96.738497
 20
5.625413
 30
0.0
 11
-97.302979
 21
6.189896
 31
0.0
  0
LINE
  5
C6DB2
  8
035
 62
     3
 10
-94.875113
 20
4.143868
 30
0.0
 11
-96.921141
 21
6.189896
 31
0.0
  0
LINE
  5
C6DB3
  8
035
 62
     3
 10
-93.55836
 20
3.208952
 30
0.0
 11
-93.850928
 21
3.501521
 31
0.0
  0
LINE
  5
C6DB4
  8
035
 62
     3
 10
-94.944497
 20
4.595089
 30
0.0
 11
-96.539304
 21
6.189896
 31
0.0
  0
LINE
  5
C6DB5
  8
035
 62
     3
 10
-93.176522
 20
3.208952
 30
0.0
 11
-93.781638
 21
3.814068
 31
0.0
  0
LINE
  5
C6DB6
  8
035
 62
     3
 10
-94.710395
 20
4.742825
 30
0.0
 11
-96.157466
 21
6.189896
 31
0.0
  0
LINE
  5
C6DB7
  8
035
 62
     3
 10
-92.794685
 20
3.208952
 30
0.0
 11
-93.712348
 21
4.126616
 31
0.0
  0
LINE
  5
C6DB8
  8
035
 62
     3
 10
-94.508092
 20
4.922359
 30
0.0
 11
-95.775628
 21
6.189896
 31
0.0
  0
LINE
  5
C6DB9
  8
035
 62
     3
 10
-92.412847
 20
3.208952
 30
0.0
 11
-93.643058
 21
4.439163
 31
0.0
  0
LINE
  5
C6DBA
  8
035
 62
     3
 10
-94.34602
 20
5.142126
 30
0.0
 11
-95.393791
 21
6.189896
 31
0.0
  0
LINE
  5
C6DBB
  8
035
 62
     3
 10
-92.031009
 20
3.208952
 30
0.0
 11
-93.573768
 21
4.751711
 31
0.0
  0
LINE
  5
C6DBC
  8
035
 62
     3
 10
-94.243352
 20
5.421295
 30
0.0
 11
-94.981922
 21
6.159864
 31
0.0
  0
LINE
  5
C6DBD
  8
035
 62
     3
 10
-91.826973
 20
3.386753
 30
0.0
 11
-93.504478
 21
5.064258
 31
0.0
  0
LINE
  5
C6DBE
  8
035
 62
     3
 10
-91.757683
 20
3.699301
 30
0.0
 11
-93.435188
 21
5.376806
 31
0.0
  0
LINE
  5
C6DBF
  8
035
 62
     3
 10
-91.688393
 20
4.011849
 30
0.0
 11
-93.365898
 21
5.689353
 31
0.0
  0
LINE
  5
C6DC0
  8
035
 62
     3
 10
-90.503659
 20
3.208952
 30
0.0
 11
-90.62785
 21
3.333143
 31
0.0
  0
LINE
  5
C6DC1
  8
035
 62
     3
 10
-91.619103
 20
4.324396
 30
0.0
 11
-93.296607
 21
6.001901
 31
0.0
  0
LINE
  5
C6DC2
  8
035
 62
     3
 10
-90.121821
 20
3.208952
 30
0.0
 11
-90.55856
 21
3.645691
 31
0.0
  0
LINE
  5
C6DC3
  8
035
 62
     3
 10
-91.549812
 20
4.636944
 30
0.0
 11
-93.102765
 21
6.189896
 31
0.0
  0
LINE
  5
C6DC4
  8
035
 62
     3
 10
-89.739983
 20
3.208952
 30
0.0
 11
-90.489269
 21
3.958238
 31
0.0
  0
LINE
  5
C6DC5
  8
035
 62
     3
 10
-91.480522
 20
4.949491
 30
0.0
 11
-92.720927
 21
6.189896
 31
0.0
  0
LINE
  5
C6DC6
  8
035
 62
     3
 10
-89.358146
 20
3.208952
 30
0.0
 11
-90.419979
 21
4.270786
 31
0.0
  0
LINE
  5
C6DC7
  8
035
 62
     3
 10
-91.411232
 20
5.262039
 30
0.0
 11
-92.339089
 21
6.189896
 31
0.0
  0
LINE
  5
C6DC8
  8
035
 62
     3
 10
-88.976308
 20
3.208952
 30
0.0
 11
-90.350689
 21
4.583333
 31
0.0
  0
LINE
  5
C6DC9
  8
035
 62
     3
 10
-91.341942
 20
5.574586
 30
0.0
 11
-91.957252
 21
6.189896
 31
0.0
  0
LINE
  5
C6DCA
  8
035
 62
     3
 10
-88.680144
 20
3.294626
 30
0.0
 11
-90.281399
 21
4.895881
 31
0.0
  0
LINE
  5
C6DCB
  8
035
 62
     3
 10
-91.272652
 20
5.887134
 30
0.0
 11
-91.575414
 21
6.189896
 31
0.0
  0
LINE
  5
C6DCC
  8
035
 62
     3
 10
-88.610854
 20
3.607174
 30
0.0
 11
-90.212109
 21
5.208428
 31
0.0
  0
LINE
  5
C6DCD
  8
035
 62
     3
 10
-88.541564
 20
3.919721
 30
0.0
 11
-90.142819
 21
5.520976
 31
0.0
  0
LINE
  5
C6DCE
  8
035
 62
     3
 10
-88.295705
 20
4.0557
 30
0.0
 11
-90.073529
 21
5.833524
 31
0.0
  0
LINE
  5
C6DCF
  8
035
 62
     3
 10
-88.027962
 20
4.169794
 30
0.0
 11
-90.004239
 21
6.146071
 31
0.0
  0
LINE
  5
C6DD0
  8
035
 62
     3
 10
-87.760218
 20
4.283888
 30
0.0
 11
-89.666226
 21
6.189896
 31
0.0
  0
LINE
  5
C6DD1
  8
035
 62
     3
 10
-86.303444
 20
3.208952
 30
0.0
 11
-89.284388
 21
6.189896
 31
0.0
  0
LINE
  5
C6DD2
  8
035
 62
     3
 10
-85.921607
 20
3.208952
 30
0.0
 11
-88.004104
 21
5.29145
 31
0.0
  0
LINE
  5
C6DD3
  8
035
 62
     3
 10
-88.195114
 20
5.482459
 30
0.0
 11
-88.90255
 21
6.189896
 31
0.0
  0
LINE
  5
C6DD4
  8
035
 62
     3
 10
-85.539769
 20
3.208952
 30
0.0
 11
-87.736361
 21
5.405544
 31
0.0
  0
LINE
  5
C6DD5
  8
035
 62
     3
 10
-88.125823
 20
5.795007
 30
0.0
 11
-88.520713
 21
6.189896
 31
0.0
  0
LINE
  5
C6DD6
  8
035
 62
     3
 10
-85.157931
 20
3.208952
 30
0.0
 11
-87.468617
 21
5.519638
 31
0.0
  0
LINE
  5
C6DD7
  8
035
 62
     3
 10
-88.056533
 20
6.107554
 30
0.0
 11
-88.138875
 21
6.189896
 31
0.0
  0
LINE
  5
C6DD8
  8
035
 62
     3
 10
-84.776094
 20
3.208952
 30
0.0
 11
-87.200873
 21
5.633732
 31
0.0
  0
LINE
  5
C6DD9
  8
035
 62
     3
 10
-84.394256
 20
3.208952
 30
0.0
 11
-86.933129
 21
5.747826
 31
0.0
  0
LINE
  5
C6DDA
  8
035
 62
     3
 10
-84.012418
 20
3.208952
 30
0.0
 11
-86.665386
 21
5.86192
 31
0.0
  0
LINE
  5
C6DDB
  8
035
 62
     3
 10
-85.618268
 20
5.19664
 30
0.0
 11
-86.397642
 21
5.976013
 31
0.0
  0
LINE
  5
C6DDC
  8
035
 62
     3
 10
-85.350525
 20
5.310734
 30
0.0
 11
-86.129898
 21
6.090107
 31
0.0
  0
LINE
  5
C6DDD
  8
035
 62
     3
 10
-85.082781
 20
5.424828
 30
0.0
 11
-85.847849
 21
6.189896
 31
0.0
  0
LINE
  5
C6DDE
  8
035
 62
     3
 10
-84.815037
 20
5.538922
 30
0.0
 11
-85.466011
 21
6.189896
 31
0.0
  0
LINE
  5
C6DDF
  8
035
 62
     3
 10
-84.547294
 20
5.653016
 30
0.0
 11
-85.084174
 21
6.189896
 31
0.0
  0
LINE
  5
C6DE0
  8
035
 62
     3
 10
-84.27955
 20
5.76711
 30
0.0
 11
-84.702336
 21
6.189896
 31
0.0
  0
LINE
  5
C6DE1
  8
035
 62
     3
 10
-84.011806
 20
5.881204
 30
0.0
 11
-84.320498
 21
6.189896
 31
0.0
  0
LINE
  5
C6DE2
  8
035
 62
     3
 10
-83.744063
 20
5.995298
 30
0.0
 11
-83.938661
 21
6.189896
 31
0.0
  0
LINE
  5
C6DE3
  8
035
 62
     3
 10
-83.476319
 20
6.109392
 30
0.0
 11
-83.556823
 21
6.189896
 31
0.0
  0
ENDBLK
  5
C6DE5
  8
0
  0
BLOCK
  8
0
  2
ZKOPF-REAN
 70
     2
 10
0.0
 20
0.0
 30
0.0
  3
ZKOPF-REAN
  1

  0
TEXT
  5
CD02C
  8
035
 10
517.653158
 20
512.84859
 30
0.0
 40
3.5
  1
  
 41
0.7
 51
15.0
  0
TEXT
  5
CD02D
  8
035
 10
517.653158
 20
512.84859
 30
0.0
 40
3.5
  1
  
 41
0.7
 51
15.0
  0
TEXT
  5
CD02E
  8
035
 10
517.653158
 20
512.84859
 30
0.0
 40
3.5
  1
  
 41
0.7
 51
15.0
  0
TEXT
  5
CD02F
  8
035
 10
517.653158
 20
512.84859
 30
0.0
 40
3.5
  1
  
 41
0.7
 51
15.0
  0
TEXT
  5
CD030
  8
035
 10
517.653158
 20
512.84859
 30
0.0
 40
3.5
  1
  
 41
0.7
 51
15.0
  0
TEXT
  5
CD031
  8
035
 10
517.653158
 20
512.84859
 30
0.0
 40
3.5
  1
  
 41
0.7
 51
15.0
  0
TEXT
  5
CD032
  8
035
 10
517.653158
 20
512.84859
 30
0.0
 40
3.5
  1
  
 41
0.7
 51
15.0
  0
TEXT
  5
CD033
  8
035
 10
517.653158
 20
512.84859
 30
0.0
 40
3.5
  1
  
 41
0.7
 51
15.0
  0
TEXT
  5
CD034
  8
035
 10
517.653158
 20
512.84859
 30
0.0
 40
3.5
  1
  
 41
0.7
 51
15.0
  0
TEXT
  5
CD035
  8
035
 10
517.653158
 20
512.84859
 30
0.0
 40
3.5
  1
  
 41
0.7
 51
15.0
  0
TEXT
  5
CD036
  8
035
 10
517.653158
 20
512.84859
 30
0.0
 40
3.5
  1
  
 41
0.7
 51
15.0
  0
TEXT
  5
CD037
  8
035
 10
517.653158
 20
512.84859
 30
0.0
 40
3.5
  1
  
 41
0.7
 51
15.0
  0
ATTDEF
  5
CD038
  8
0
 62
     4
 10
-15.166667
 20
37.0
 30
0.0
 40
2.5
  1
Battlogg
  7
SCRIPTS
 72
     1
 11
-8.5
 21
37.0
 31
0.0
  3
Name des Konstrukteurs ?
  2
NAME
 70
     0
  0
POLYLINE
  5
CD039
  8
0
 62
     2
 66
     1
 10
0.0
 20
0.0
 30
0.0
  0
VERTEX
  5
CD215
  8
0
 62
     2
 10
-51.0
 20
0.0
 30
0.0
  0
VERTEX
  5
CD216
  8
0
 62
     2
 10
-51.0
 20
46.0
 30
0.0
  0
SEQEND
  5
CD217
  8
0
 62
     2
  0
POLYLINE
  5
CD03A
  8
0
 62
     2
 66
     1
 10
0.0
 20
0.0
 30
0.0
  0
VERTEX
  5
CD218
  8
0
 62
     2
 10
-17.0
 20
9.0
 30
0.0
  0
VERTEX
  5
CD219
  8
0
 62
     2
 10
-17.0
 20
46.0
 30
0.0
  0
SEQEND
  5
CD21A
  8
0
 62
     2
  0
POLYLINE
  5
CD03B
  8
0
 62
     2
 66
     1
 10
0.0
 20
0.0
 30
0.0
  0
VERTEX
  5
CD21B
  8
0
 62
     2
 10
-32.0
 20
26.0
 30
0.0
  0
VERTEX
  5
CD21C
  8
0
 62
     2
 10
-32.0
 20
46.0
 30
0.0
  0
SEQEND
  5
CD21D
  8
0
 62
     2
  0
POLYLINE
  5
CD03C
  8
0
 62
     2
 66
     1
 10
0.0
 20
0.0
 30
0.0
  0
VERTEX
  5
CD21E
  8
0
 62
     2
 10
-133.0
 20
41.0
 30
0.0
  0
VERTEX
  5
CD21F
  8
0
 62
     2
 10
-92.0
 20
41.0
 30
0.0
  0
SEQEND
  5
CD220
  8
0
 62
     2
  0
POLYLINE
  5
CD03D
  8
0
 62
     2
 66
     1
 10
0.0
 20
0.0
 30
0.0
  0
VERTEX
  5
CD221
  8
0
 62
     2
 10
-145.0
 20
0.0
 30
0.0
  0
VERTEX
  5
CD222
  8
0
 62
     2
 10
-145.0
 20
46.0
 30
0.0
  0
SEQEND
  5
CD223
  8
0
 62
     2
  0
POLYLINE
  5
CD03E
  8
0
 62
     2
 66
     1
 10
0.0
 20
0.0
 30
0.0
  0
VERTEX
  5
CD224
  8
0
 62
     2
 10
-158.0
 20
0.0
 30
0.0
  0
VERTEX
  5
CD225
  8
0
 62
     2
 10
-158.0
 20
46.0
 30
0.0
  0
SEQEND
  5
CD226
  8
0
 62
     2
  0
LINE
  5
CD03F
  8
0
 62
     2
 10
-200.0
 20
6.0
 30
0.0
 11
-133.0
 21
6.0
 31
0.0
  0
POLYLINE
  5
CD040
  8
0
 62
     4
 66
     1
 10
0.0
 20
0.0
 30
0.0
  0
VERTEX
  5
CD227
  8
0
 62
     4
 10
-200.0
 20
11.0
 30
0.0
  0
VERTEX
  5
CD228
  8
0
 62
     4
 10
-133.0
 20
11.0
 30
0.0
  0
SEQEND
  5
CD229
  8
0
 62
     4
  0
POLYLINE
  5
CD041
  8
0
 62
     4
 66
     1
 10
0.0
 20
0.0
 30
0.0
  0
VERTEX
  5
CD22A
  8
0
 62
     4
 10
-200.0
 20
16.0
 30
0.0
  0
VERTEX
  5
CD22B
  8
0
 62
     4
 10
-133.0
 20
16.0
 30
0.0
  0
SEQEND
  5
CD22C
  8
0
 62
     4
  0
POLYLINE
  5
CD042
  8
0
 62
     4
 66
     1
 10
0.0
 20
0.0
 30
0.0
  0
VERTEX
  5
CD22D
  8
0
 62
     4
 10
-200.0
 20
21.0
 30
0.0
  0
VERTEX
  5
CD22E
  8
0
 62
     4
 10
-133.0
 20
21.0
 30
0.0
  0
SEQEND
  5
CD22F
  8
0
 62
     4
  0
POLYLINE
  5
CD043
  8
0
 62
     4
 66
     1
 10
0.0
 20
0.0
 30
0.0
  0
VERTEX
  5
CD230
  8
0
 62
     4
 10
-200.0
 20
26.0
 30
0.0
  0
VERTEX
  5
CD231
  8
0
 62
     4
 10
-133.0
 20
26.0
 30
0.0
  0
SEQEND
  5
CD232
  8
0
 62
     4
  0
POLYLINE
  5
CD044
  8
0
 62
     4
 66
     1
 10
0.0
 20
0.0
 30
0.0
  0
VERTEX
  5
CD233
  8
0
 62
     4
 10
-200.0
 20
31.0
 30
0.0
  0
VERTEX
  5
CD234
  8
0
 62
     4
 10
-133.0
 20
31.0
 30
0.0
  0
SEQEND
  5
CD235
  8
0
 62
     4
  0
POLYLINE
  5
CD045
  8
0
 62
     4
 66
     1
 10
0.0
 20
0.0
 30
0.0
  0
VERTEX
  5
CD236
  8
0
 62
     4
 10
-200.0
 20
36.0
 30
0.0
  0
VERTEX
  5
CD237
  8
0
 62
     4
 10
-133.0
 20
36.0
 30
0.0
  0
SEQEND
  5
CD238
  8
0
 62
     4
  0
POLYLINE
  5
CD046
  8
0
 62
     4
 66
     1
 10
0.0
 20
0.0
 30
0.0
  0
VERTEX
  5
CD239
  8
0
 62
     4
 10
-200.0
 20
41.0
 30
0.0
  0
VERTEX
  5
CD23A
  8
0
 62
     4
 10
-133.0
 20
41.0
 30
0.0
  0
SEQEND
  5
CD23B
  8
0
 62
     4
  0
TEXT
  5
CD047
  8
0
 62
     4
 10
-50.0
 20
6.0
 30
0.0
 40
1.5
  1
Zeichn. Nr.
 51
15.0
  0
TEXT
  5
CD048
  8
0
 62
     4
 10
-50.0
 20
23.0
 30
0.0
 40
1.5
  1
Ersetzt durch:         Blatt
 51
15.0
  0
TEXT
  5
CD049
  8
0
 62
     4
 10
-50.0
 20
38.0
 30
0.0
 40
1.5
  1
Gezeichnet
 51
15.0
  0
TEXT
  5
CD04A
  8
0
 62
     4
 10
-50.0
 20
27.0
 30
0.0
 40
1.5
  1
Gesehen
 51
15.0
  0
TEXT
  5
CD04B
  8
0
 62
     4
 10
-31.0
 20
42.0
 30
0.0
 40
1.5
  1
Datum     Name
 51
15.0
  0
TEXT
  5
CD04C
  8
0
 62
     4
 10
-91.0
 20
42.0
 30
0.0
 40
1.5
  1
Werkstoff:      Massstab:
 51
15.0
  0
TEXT
  5
CD04D
  8
0
 62
     4
 10
-132.0
 20
23.0
 30
0.0
 40
1.5
  1
Benennung:
 51
15.0
  0
LINE
  5
CD04E
  8
0
 62
     2
 10
-133.0
 20
33.0
 30
0.0
 11
-92.0
 21
33.0
 31
0.0
  0
TEXT
  5
CD04F
  8
0
 62
     4
 10
-132.0
 20
39.0
 30
0.0
 40
1.5
  1
*)Lieferant darf ohne 
 51
15.0
  0
TEXT
  5
CD050
  8
0
 62
     4
 10
-132.0
 20
36.5
 30
0.0
 40
1.5
  1
 Ruecksprache nicht 
 51
15.0
  0
TEXT
  5
CD051
  8
0
 62
     4
 10
-132.0
 20
34.0
 30
0.0
 40
1.5
  1
 geaendert werden
 51
15.0
  0
TEXT
  5
CD052
  8
0
 62
     4
 10
-132.0
 20
30.0
 30
0.0
 40
1.5
  1
Zeichnung urheberrechtlich
 51
15.0
  0
TEXT
  5
CD053
  8
0
 62
     4
 10
-132.0
 20
27.5
 30
0.0
 40
1.5
  1
geschuetzt (DIN 34) (C)
 51
15.0
  0
TEXT
  5
CD054
  8
0
 62
     4
 10
-50.0
 20
32.0
 30
0.0
 40
1.5
  1
Geprueft
 51
15.0
  0
TEXT
  5
CD055
  8
0
 62
     4
 10
-50.0
 20
15.0
 30
0.0
 40
1.5
  1
Ersatz fuer:           von  Blatt
 51
15.0
  0
TEXT
  5
CD056
  8
0
 62
     4
 10
-197.0
 20
1.0
 30
0.0
 40
1.5
  1
Ind.  Aenderung             Datum    Name
 51
15.0
  0
ATTDEF
  5
CD057
  8
0
 62
     4
 10
-30.770833
 20
37.0
 30
0.0
 40
2.5
  1
03.11.2004
 41
0.7
 51
15.0
 72
     1
 11
-24.5
 21
37.0
 31
0.0
  3
Datum der Zeichnung ?
  2
DATE
 70
     0
  0
ATTDEF
  5
CD058
  8
0
 62
     4
 10
-80.5
 20
36.0
 30
0.0
 40
2.5
  1

 41
0.7
 51
15.0
 72
     1
 11
-80.5
 21
36.0
 31
0.0
  3
Aus welchem Werkstoff ?
  2
WERKSTOFF
 70
     0
  0
ATTDEF
  5
CD059
  8
0
 62
     2
 10
-92.0
 20
12.5
 30
0.0
 40
5.0
  1

 41
0.7
 51
15.0
 72
     1
 11
-92.0
 21
12.5
 31
0.0
  3
Zeichnungsname ?
  2
BENENNUNG
 70
     0
  0
ATTDEF
  5
CD05A
  8
0
 62
     3
 10
-90.265457
 20
21.082191
 30
0.0
 40
3.5
  1
()
 41
0.7
 51
15.0
 72
     1
 11
-89.040457
 21
21.082191
 31
0.0
  3
Zu welchem Produkt ?
  2
TEIL
 70
     0
  0
ATTDEF
  5
CD05B
  8
0
 62
     3
 10
-20.550219
 20
1.976541
 30
0.0
 40
3.5
  1

 41
0.7
 51
15.0
 72
     1
 11
-20.550219
 21
1.976541
 31
0.0
  3
Zeichnungsnummer ?
  2
NUMMER
 70
     0
  0
ATTDEF
  5
CD05C
  8
0
 62
     2
 10
-62.899338
 20
34.656056
 30
0.0
 40
5.0
  1
1:1
 41
0.7
 51
15.0
 72
     1
 11
-60.566005
 21
34.656056
 31
0.0
  3
Hauptmassstab:
  2
MASS
 70
     0
  0
ATTDEF
  5
CD05D
  8
0
 62
     3
 10
-60.480701
 20
28.210451
 30
0.0
 40
3.5
  1

 41
0.7
 51
15.0
 72
     1
 11
-60.480701
 21
28.210451
 31
0.0
  3
Nebenmassstab:
  2
MASS2
 70
     0
  0
ATTDEF
  5
CD05E
  8
0
 62
     4
 10
-81.0
 20
29.0
 30
0.0
 40
2.5
  1

 41
0.7
 51
15.0
 72
     1
 11
-81.0
 21
29.0
 31
0.0
  3
Werkstoffzusatz:
  2
TEIL
 70
     0
  0
ATTDEF
  5
CD05F
  8
0
 62
     3
 10
-107.711452
 20
59.004319
 30
0.0
 40
3.5
  1
Freimasstoleranzen %%p0.1
 41
0.7
 51
15.0
  3
Freimasstoleranzen:
  2
TOL
 70
     0
  0
ATTDEF
  5
CD060
  8
0
 62
     3
 10
-107.711452
 20
54.004319
 30
0.0
 40
3.5
  1
nicht bemasste Radien R=0.2
 41
0.7
 51
15.0
  3
Nicht bemasste Radien:
  2
RADIEN
 70
     0
  0
ATTDEF
  5
CD061
  8
0
 62
     3
 10
-107.711452
 20
49.004319
 30
0.0
 40
3.5
  1
nicht bemasste Facetten 0.5 x 45%%D
 41
0.7
 51
15.0
  3
nicht bemasste Facetten:
  2
FACETTE
 70
     0
  0
POLYLINE
  5
CD062
  8
0
 62
     2
 66
     1
 10
0.0
 20
0.0
 30
0.0
  0
VERTEX
  5
CD23C
  8
0
 62
     2
 10
-191.0
 20
0.0
 30
0.0
  0
VERTEX
  5
CD23D
  8
0
 62
     2
 10
-191.0
 20
46.0
 30
0.0
  0
SEQEND
  5
CD23E
  8
0
 62
     2
  0
POLYLINE
  5
CD063
  8
0
 62
     2
 66
     1
 10
0.0
 20
0.0
 30
0.0
  0
VERTEX
  5
CD23F
  8
0
 62
     2
 10
-133.0
 20
0.0
 30
0.0
  0
VERTEX
  5
CD240
  8
0
 62
     2
 10
-133.0
 20
46.0
 30
0.0
  0
SEQEND
  5
CD241
  8
0
 62
     2
  0
POLYLINE
  5
CD064
  8
0
 62
     2
 66
     1
 10
0.0
 20
0.0
 30
0.0
  0
VERTEX
  5
CD242
  8
0
 62
     2
 10
-92.0
 20
26.0
 30
0.0
  0
VERTEX
  5
CD243
  8
0
 62
     2
 10
-92.0
 20
46.0
 30
0.0
  0
SEQEND
  5
CD244
  8
0
 62
     2
  0
POLYLINE
  5
CD065
  8
0
 62
     2
 66
     1
 10
0.0
 20
0.0
 30
0.0
  0
VERTEX
  5
CD245
  8
0
 62
     2
 10
-69.0
 20
26.0
 30
0.0
  0
VERTEX
  5
CD246
  8
0
 62
     2
 10
-69.0
 20
46.0
 30
0.0
  0
SEQEND
  5
CD247
  8
0
 62
     2
  0
ATTDEF
  5
CD066
  8
0
 62
     4
 10
-197.186267
 20
7.0
 30
0.0
 40
2.5
  1

 41
0.7
 51
15.0
  3
Index1:
  2
INDEX1
 70
     0
  0
ATTDEF
  5
CD067
  8
0
 62
     4
 10
-190.348743
 20
7.0
 30
0.0
 40
2.5
  1

 41
0.7
 51
15.0
  3
Aenderung1:
  2
A1
 70
     0
  0
ATTDEF
  5
CD068
  8
0
 62
     4
 10
-157.348743
 20
7.0
 30
0.0
 40
2.5
  1

 41
0.7
 51
15.0
  3
Datum1:
  2
DATUM1
 70
     0
  0
ATTDEF
  5
CD069
  8
0
 62
     4
 10
-144.46499
 20
7.0
 30
0.0
 40
2.5
  1

 41
0.7
 51
15.0
  3
Name1:
  2
NAME1
 70
     0
  0
ATTDEF
  5
CD06A
  8
0
 62
     4
 10
-197.186267
 20
12.0
 30
0.0
 40
2.5
  1

 41
0.7
 51
15.0
  3
Index2:
  2
INDEX2
 70
     0
  0
ATTDEF
  5
CD06B
  8
0
 62
     4
 10
-190.348743
 20
12.0
 30
0.0
 40
2.5
  1

 41
0.7
 51
15.0
  3
Aenderung2:
  2
A2
 70
     0
  0
ATTDEF
  5
CD06C
  8
0
 62
     4
 10
-157.348743
 20
12.0
 30
0.0
 40
2.5
  1

 41
0.7
 51
15.0
  3
Datum2:
  2
DATUM2
 70
     0
  0
ATTDEF
  5
CD06D
  8
0
 62
     4
 10
-144.46499
 20
12.0
 30
0.0
 40
2.5
  1

 41
0.7
 51
15.0
  3
Name2
  2
NAME2
 70
     0
  0
ATTDEF
  5
CD06E
  8
0
 62
     4
 10
-197.186267
 20
17.0
 30
0.0
 40
2.5
  1

 41
0.7
 51
15.0
  3
Index3:
  2
INDEX3
 70
     0
  0
ATTDEF
  5
CD06F
  8
0
 62
     4
 10
-190.348743
 20
17.0
 30
0.0
 40
2.5
  1

 41
0.7
 51
15.0
  3
Aenderung3
  2
A3
 70
     0
  0
ATTDEF
  5
CD070
  8
0
 62
     4
 10
-157.348743
 20
17.0
 30
0.0
 40
2.5
  1

 41
0.7
 51
15.0
  3
Datum3:
  2
DATUM3
 70
     0
  0
ATTDEF
  5
CD071
  8
0
 62
     4
 10
-144.46499
 20
17.0
 30
0.0
 40
2.5
  1

 41
0.7
 51
15.0
  3
Name3:
  2
NAME3
 70
     0
  0
ATTDEF
  5
CD072
  8
0
 62
     4
 10
-197.186267
 20
22.0
 30
0.0
 40
2.5
  1

 41
0.7
 51
15.0
  3
Index4:
  2
INDEX4
 70
     0
  0
ATTDEF
  5
CD073
  8
0
 62
     4
 10
-190.348743
 20
22.0
 30
0.0
 40
2.5
  1

 41
0.7
 51
15.0
  3
Aenderung4:
  2
A4
 70
     0
  0
ATTDEF
  5
CD074
  8
0
 62
     4
 10
-157.348743
 20
22.0
 30
0.0
 40
2.5
  1

 41
0.7
 51
15.0
  3
Datum4:
  2
DATUM4
 70
     0
  0
ATTDEF
  5
CD075
  8
0
 62
     4
 10
-144.46499
 20
22.0
 30
0.0
 40
2.5
  1

 41
0.7
 51
15.0
  3
Name4:
  2
NAME4
 70
     0
  0
ATTDEF
  5
CD076
  8
0
 62
     4
 10
-197.186267
 20
27.0
 30
0.0
 40
2.5
  1

 41
0.7
 51
15.0
  3
Index5:
  2
INDEX5
 70
     0
  0
ATTDEF
  5
CD077
  8
0
 62
     4
 10
-190.348743
 20
27.0
 30
0.0
 40
2.5
  1

 41
0.7
 51
15.0
  3
Aenderung5:
  2
A5
 70
     0
  0
ATTDEF
  5
CD078
  8
0
 62
     4
 10
-157.348743
 20
27.0
 30
0.0
 40
2.5
  1

 41
0.7
 51
15.0
  3
Datum5:
  2
DATUM5
 70
     0
  0
ATTDEF
  5
CD079
  8
0
 62
     4
 10
-144.46499
 20
27.0
 30
0.0
 40
2.5
  1

 41
0.7
 51
15.0
  3
Name5
  2
NAME5
 70
     0
  0
ATTDEF
  5
CD07A
  8
0
 62
     4
 10
-197.186267
 20
32.0
 30
0.0
 40
2.5
  1

 41
0.7
 51
15.0
  3
Index6:
  2
INDEX6
 70
     0
  0
ATTDEF
  5
CD07B
  8
0
 62
     4
 10
-190.348743
 20
32.0
 30
0.0
 40
2.5
  1

 41
0.7
 51
15.0
  3
Aenderung6:
  2
A6
 70
     0
  0
ATTDEF
  5
CD07C
  8
0
 62
     4
 10
-157.348743
 20
32.0
 30
0.0
 40
2.5
  1

 41
0.7
 51
15.0
  3
Datum6:
  2
DATUM6
 70
     0
  0
ATTDEF
  5
CD07D
  8
0
 62
     4
 10
-144.46499
 20
32.0
 30
0.0
 40
2.5
  1

 41
0.7
 51
15.0
  3
Name6:
  2
NAME6
 70
     0
  0
ATTDEF
  5
CD07E
  8
0
 62
     4
 10
-197.186267
 20
37.0
 30
0.0
 40
2.5
  1

 41
0.7
 51
15.0
  3
Index7:
  2
INDEX7
 70
     0
  0
ATTDEF
  5
CD07F
  8
0
 62
     4
 10
-190.348743
 20
37.0
 30
0.0
 40
2.5
  1

 41
0.7
 51
15.0
  3
Aenderung7:
  2
A7
 70
     0
  0
ATTDEF
  5
CD080
  8
0
 62
     4
 10
-157.348743
 20
37.0
 30
0.0
 40
2.5
  1

 41
0.7
 51
15.0
  3
Datum7:
  2
DATUM7
 70
     0
  0
ATTDEF
  5
CD081
  8
0
 62
     4
 10
-144.46499
 20
37.0
 30
0.0
 40
2.5
  1

 41
0.7
 51
15.0
  3
Name7:
  2
NAME7
 70
     0
  0
ATTDEF
  5
CD082
  8
0
 62
     4
 10
-197.186267
 20
42.0
 30
0.0
 40
2.5
  1

 41
0.7
 51
15.0
  3
Index8:
  2
INDEX8
 70
     0
  0
ATTDEF
  5
CD083
  8
0
 62
     4
 10
-190.348743
 20
42.0
 30
0.0
 40
2.5
  1

 41
0.7
 51
15.0
  3
Aenderung8:
  2
A8
 70
     0
  0
ATTDEF
  5
CD084
  8
0
 62
     4
 10
-157.348743
 20
42.0
 30
0.0
 40
2.5
  1

 41
0.7
 51
15.0
  3
Datum8:
  2
DATUM8
 70
     0
  0
ATTDEF
  5
CD085
  8
0
 62
     4
 10
-144.46499
 20
42.0
 30
0.0
 40
2.5
  1

 41
0.7
 51
15.0
  3
Name8:
  2
NAME8
 70
     0
  0
POLYLINE
  5
CD086
  8
0
 62
     2
 66
     1
 10
0.0
 20
0.0
 30
0.0
  0
VERTEX
  5
CD248
  8
0
 62
     2
 10
0.0
 20
0.0
 30
0.0
  0
VERTEX
  5
CD249
  8
0
 62
     2
 10
0.0
 20
46.0
 30
0.0
  0
SEQEND
  5
CD24A
  8
0
 62
     2
  0
POLYLINE
  5
CD087
  8
0
 62
     2
 66
     1
 10
0.0
 20
0.0
 30
0.0
  0
VERTEX
  5
CD24B
  8
0
 62
     2
 10
-200.0
 20
46.0
 30
0.0
  0
VERTEX
  5
CD24C
  8
0
 62
     2
 10
-200.0
 20
0.0
 30
0.0
  0
SEQEND
  5
CD24D
  8
0
 62
     2
  0
POLYLINE
  5
CD088
  8
0
 62
     2
 66
     1
 10
0.0
 20
0.0
 30
0.0
  0
VERTEX
  5
CD24E
  8
0
 62
     2
 10
0.0
 20
9.0
 30
0.0
  0
VERTEX
  5
CD24F
  8
0
 62
     2
 10
-133.0
 20
9.0
 30
0.0
  0
SEQEND
  5
CD250
  8
0
 62
     2
  0
POLYLINE
  5
CD089
  8
0
 62
     2
 66
     1
 10
0.0
 20
0.0
 30
0.0
  0
VERTEX
  5
CD251
  8
0
 62
     2
 10
0.0
 20
18.0
 30
0.0
  0
VERTEX
  5
CD252
  8
0
 62
     2
 10
-51.0
 20
18.0
 30
0.0
  0
SEQEND
  5
CD253
  8
0
 62
     2
  0
POLYLINE
  5
CD08A
  8
0
 62
     2
 66
     1
 10
0.0
 20
0.0
 30
0.0
  0
VERTEX
  5
CD254
  8
0
 62
     2
 10
0.0
 20
26.0
 30
0.0
  0
VERTEX
  5
CD255
  8
0
 62
     2
 10
-133.0
 20
26.0
 30
0.0
  0
SEQEND
  5
CD256
  8
0
 62
     2
  0
POLYLINE
  5
CD08B
  8
0
 62
     2
 66
     1
 10
0.0
 20
0.0
 30
0.0
  0
VERTEX
  5
CD257
  8
0
 62
     2
 10
0.0
 20
31.0
 30
0.0
  0
VERTEX
  5
CD258
  8
0
 62
     2
 10
-51.0
 20
31.0
 30
0.0
  0
SEQEND
  5
CD259
  8
0
 62
     2
  0
POLYLINE
  5
CD08C
  8
0
 62
     2
 66
     1
 10
0.0
 20
0.0
 30
0.0
  0
VERTEX
  5
CD25A
  8
0
 62
     2
 10
0.0
 20
36.0
 30
0.0
  0
VERTEX
  5
CD25B
  8
0
 62
     2
 10
-51.0
 20
36.0
 30
0.0
  0
SEQEND
  5
CD25C
  8
0
 62
     2
  0
POLYLINE
  5
CD08D
  8
0
 62
     2
 66
     1
 10
0.0
 20
0.0
 30
0.0
  0
VERTEX
  5
CD25D
  8
0
 62
     2
 10
0.0
 20
41.0
 30
0.0
  0
VERTEX
  5
CD25E
  8
0
 62
     2
 10
-51.0
 20
41.0
 30
0.0
  0
SEQEND
  5
CD25F
  8
0
 62
     2
  0
POLYLINE
  5
CD08E
  8
0
 62
     2
 66
     1
 10
0.0
 20
0.0
 30
0.0
  0
VERTEX
  5
CD260
  8
0
 62
     2
 10
0.0
 20
46.0
 30
0.0
  0
VERTEX
  5
CD261
  8
0
 62
     2
 10
-200.0
 20
46.0
 30
0.0
  0
SEQEND
  5
CD262
  8
0
 62
     2
  0
TEXT
  5
CD08F
  8
035
 10
517.653158
 20
512.84859
 30
0.0
 40
3.5
  1
  
 41
0.7
 51
15.0
  0
LINE
  5
CD090
  8
05
 10
-109.786833
 20
1.991866
 30
0.0
 11
-107.121854
 21
1.991866
 31
0.0
  0
LINE
  5
CD091
  8
05
 10
-109.786833
 20
1.991866
 30
0.0
 11
-108.884845
 21
5.721227
 31
0.0
  0
LINE
  5
CD092
  8
05
 10
-97.883057
 20
2.941046
 30
0.0
 11
-97.741768
 21
3.525221
 31
0.0
  0
LINE
  5
CD093
  8
05
 10
-100.626753
 20
1.985934
 30
0.0
 11
-99.73917
 21
5.655734
 31
0.0
  0
LINE
  5
CD094
  8
05
 10
-101.65257
 20
1.991866
 30
0.0
 11
-103.777929
 21
3.44834
 31
0.0
  0
LINE
  5
CD095
  8
05
 10
-104.575338
 20
1.991866
 30
0.0
 11
-106.759794
 21
3.488838
 31
0.0
  0
LINE
  5
CD096
  8
05
 10
-107.121854
 20
1.991866
 30
0.0
 11
-106.759794
 21
3.488838
 31
0.0
  0
LINE
  5
CD097
  8
05
 10
-78.264922
 20
1.991866
 30
0.0
 11
-80.343243
 21
4.257016
 31
0.0
  0
LINE
  5
CD098
  8
05
 10
-75.015521
 20
1.991866
 30
0.0
 11
-74.129372
 21
5.655734
 31
0.0
  0
LINE
  5
CD099
  8
05
 10
-80.891096
 20
1.991866
 30
0.0
 11
-80.343243
 21
4.257016
 31
0.0
  0
LINE
  5
CD09A
  8
05
 10
-83.271451
 20
1.991866
 30
0.0
 11
-82.385303
 21
5.655734
 31
0.0
  0
LINE
  5
CD09B
  8
05
 10
-86.159077
 20
5.655734
 30
0.0
 11
-84.240668
 21
1.991866
 31
0.0
  0
LINE
  5
CD09C
  8
05
 10
-92.656302
 20
1.991866
 30
0.0
 11
-89.202895
 21
5.655734
 31
0.0
  0
LINE
  5
CD09D
  8
05
 10
-99.73917
 20
5.655734
 30
0.0
 11
-92.981554
 21
5.655734
 31
0.0
  0
LINE
  5
CD09E
  8
05
 10
-97.554768
 20
4.298391
 30
0.0
 11
-97.430101
 21
4.813838
 31
0.0
  0
LINE
  5
CD09F
  8
05
 10
-97.741768
 20
3.525221
 30
0.0
 11
-94.44862
 21
3.525221
 31
0.0
  0
LINE
  5
CD0A0
  8
05
 10
-97.554768
 20
4.298391
 30
0.0
 11
-94.26162
 21
4.298391
 31
0.0
  0
ARC
  5
CD0A1
  8
05
 10
-103.5768
 20
1.048488
 30
0.0
 40
4.603731
 50
69.562986
 51
81.731692
  0
ARC
  5
CD0A2
  8
05
 10
-104.360333
 20
9.695316
 30
0.0
 40
6.274066
 50
275.326278
 51
289.525993
  0
ARC
  5
CD0A3
  8
05
 10
-102.594066
 20
4.972077
 30
0.0
 40
1.232717
 50
286.581886
 51
338.146956
  0
ARC
  5
CD0A4
  8
05
 10
-102.021937
 20
4.683869
 30
0.0
 40
0.597227
 50
340.399744
 51
51.414228
  0
ARC
  5
CD0A5
  8
05
 10
-102.925451
 20
3.563011
 30
0.0
 40
2.0377
 50
51.536856
 51
62.015041
  0
ARC
  5
CD0A6
  8
05
 10
-105.569755
 20
-23.421024
 30
0.0
 40
29.146566
 50
84.676683
 51
90.985976
  0
ARC
  5
CD0A7
  8
05
 10
-105.662755
 20
8.045413
 30
0.0
 40
4.086755
 50
273.844537
 51
284.464628
  0
ARC
  5
CD0A8
  8
05
 10
-105.461356
 20
1.639787
 30
0.0
 40
3.317438
 50
71.64551
 51
85.712788
  0
ARC
  5
CD0A9
  8
05
 10
-105.266143
 20
5.623081
 30
0.0
 40
1.656947
 50
292.130003
 51
304.027207
  0
ARC
  5
CD0AA
  8
05
 10
-104.533103
 20
4.496732
 30
0.0
 40
0.314086
 50
308.183971
 51
68.249048
  0
LINE
  5
CD0AB
  8
05
 10
-106.682865
 20
3.967854
 30
0.0
 11
-106.445819
 21
4.947943
 31
0.0
  0
LINE
  5
CD0AC
  8
05
 10
-106.682865
 20
3.967854
 30
0.0
 11
-105.38874
 21
3.967854
 31
0.0
  0
LINE
  5
CD0AD
  8
05
 10
-106.445819
 20
4.947943
 30
0.0
 11
-105.213357
 21
4.947943
 31
0.0
  0
LINE
  5
CD0AE
  8
05
 10
-108.884845
 20
5.721227
 30
0.0
 11
-106.001611
 21
5.721227
 31
0.0
  0
LINE
  5
CD0AF
  8
05
 10
-93.185176
 20
4.813838
 30
0.0
 11
-92.981554
 21
5.655734
 31
0.0
  0
LINE
  5
CD0B0
  8
05
 10
-97.430101
 20
4.813838
 30
0.0
 11
-93.185176
 21
4.813838
 31
0.0
  0
LINE
  5
CD0B1
  8
05
 10
-94.44862
 20
3.525221
 30
0.0
 11
-94.26162
 21
4.298391
 31
0.0
  0
LINE
  5
CD0B2
  8
05
 10
-77.190213
 20
3.465139
 30
0.0
 11
-76.660393
 21
5.655734
 31
0.0
  0
LINE
  5
CD0B3
  8
05
 10
-81.626596
 20
5.655734
 30
0.0
 11
-81.629003
 21
5.658357
 31
0.0
  0
LINE
  5
CD0B4
  8
05
 10
-76.660393
 20
5.655734
 30
0.0
 11
-74.129372
 21
5.655734
 31
0.0
  0
LINE
  5
CD0B5
  8
05
 10
-77.190213
 20
3.465139
 30
0.0
 11
-79.20013
 21
5.655734
 31
0.0
  0
LINE
  5
CD0B6
  8
05
 10
-82.385303
 20
5.655734
 30
0.0
 11
-79.20013
 21
5.655734
 31
0.0
  0
LINE
  5
CD0B7
  8
05
 10
-89.117244
 20
3.284678
 30
0.0
 11
-87.581879
 21
3.284678
 31
0.0
  0
LINE
  5
CD0B8
  8
05
 10
-89.117244
 20
3.284678
 30
0.0
 11
-88.130196
 21
4.33188
 31
0.0
  0
LINE
  5
CD0B9
  8
05
 10
-88.130196
 20
4.33188
 30
0.0
 11
-87.581879
 21
3.284678
 31
0.0
  0
LINE
  5
CD0BA
  8
05
 10
-89.202895
 20
5.655734
 30
0.0
 11
-86.159077
 21
5.655734
 31
0.0
  0
LINE
  5
CD0BB
  8
05
 10
-90.335794
 20
1.991866
 30
0.0
 11
-89.910781
 21
2.442781
 31
0.0
  0
LINE
  5
CD0BC
  8
05
 10
-100.625318
 20
1.991866
 30
0.0
 11
-93.867702
 21
1.991866
 31
0.0
  0
LINE
  5
CD0BD
  8
05
 10
-97.883057
 20
2.941046
 30
0.0
 11
-93.638132
 21
2.941046
 31
0.0
  0
LINE
  5
CD0BE
  8
05
 10
-104.575338
 20
1.991866
 30
0.0
 11
-101.582882
 21
1.991866
 31
0.0
  0
LINE
  5
CD0BF
  8
05
 10
-92.656302
 20
1.991866
 30
0.0
 11
-90.335794
 21
1.991866
 31
0.0
  0
LINE
  5
CD0C0
  8
05
 10
-93.869137
 20
1.985934
 30
0.0
 11
-93.638132
 21
2.941046
 31
0.0
  0
LINE
  5
CD0C1
  8
05
 10
-78.264922
 20
1.991866
 30
0.0
 11
-75.015521
 21
1.991866
 31
0.0
  0
LINE
  5
CD0C2
  8
05
 10
-83.271451
 20
1.991866
 30
0.0
 11
-80.891096
 21
1.991866
 31
0.0
  0
LINE
  5
CD0C3
  8
05
 10
-89.910781
 20
2.442781
 30
0.0
 11
-87.141059
 21
2.442781
 31
0.0
  0
LINE
  5
CD0C4
  8
05
 10
-87.141059
 20
2.442781
 30
0.0
 11
-86.90496
 21
1.991866
 31
0.0
  0
LINE
  5
CD0C5
  8
05
 10
-86.90496
 20
1.991866
 30
0.0
 11
-84.240668
 21
1.991866
 31
0.0
  0
ENDBLK
  5
CD0C7
  8
0
  0
BLOCK
  8
0
  2
A$C36291E6D
 70
     0
 10
0.0
 20
0.0
 30
0.0
  3
A$C36291E6D
  1

  0
LINE
  5
CD0C9
  8
025
 10
1.130109
 20
0.0
 30
0.0
 11
0.0
 21
0.27333
 31
0.0
  0
LINE
  5
CD0CA
  8
025
 10
1.130109
 20
0.0
 30
0.0
 11
1.130109
 21
0.807569
 31
0.0
  0
LINE
  5
CD0CB
  8
025
 10
1.130109
 20
5.19107
 30
0.0
 11
0.019846
 21
6.237557
 31
0.0
  0
LINE
  5
CD0CC
  8
025
 10
0.019846
 20
7.159926
 30
0.0
 11
1.130109
 21
7.741262
 31
0.0
  0
LINE
  5
CD0CD
  8
025
 10
1.130109
 20
8.034964
 30
0.0
 11
0.019846
 21
8.303494
 31
0.0
  0
LINE
  5
CD0CE
  8
025
 10
1.130109
 20
8.756284
 30
0.0
 11
0.4437
 21
8.9223
 31
0.0
  0
LINE
  5
CD0CF
  8
025
 10
1.130109
 20
10.536761
 30
0.0
 11
0.019846
 21
10.805291
 31
0.0
  0
LINE
  5
CD0D0
  8
025
 10
1.130109
 20
9.552094
 30
0.0
 11
0.4437
 21
8.9223
 31
0.0
  0
LINE
  5
CD0D1
  8
025
 10
1.130109
 20
0.807569
 30
0.0
 11
0.676481
 21
0.917284
 31
0.0
  0
LINE
  5
CD0D2
  8
025
 10
1.130109
 20
1.579241
 30
0.0
 11
0.676481
 21
0.917284
 31
0.0
  0
LINE
  5
CD0D3
  8
025
 10
1.130109
 20
2.464928
 30
0.0
 11
0.688754
 21
1.82088
 31
0.0
  0
LINE
  5
CD0D4
  8
025
 10
1.131907
 20
2.775782
 30
0.0
 11
0.019846
 21
3.044746
 31
0.0
  0
LINE
  5
CD0D5
  8
025
 10
0.842479
 20
3.607205
 30
0.0
 11
0.665456
 21
3.65002
 31
0.0
  0
LINE
  5
CD0D6
  8
025
 10
0.665456
 20
4.647943
 30
0.0
 11
0.431162
 21
4.70461
 31
0.0
  0
LINE
  5
CD0D7
  8
025
 10
0.274966
 20
3.744464
 30
0.0
 11
0.274966
 21
5.030805
 31
0.0
  0
LINE
  5
CD0D8
  8
025
 10
0.274966
 20
5.030805
 30
0.0
 11
0.019846
 21
5.092509
 31
0.0
  0
LINE
  5
CD0D9
  8
025
 10
0.0
 20
0.27333
 30
0.0
 11
0.0
 21
1.147037
 31
0.0
  0
LINE
  5
CD0DA
  8
025
 10
0.234328
 20
1.012428
 30
0.0
 11
0.234328
 21
1.385901
 31
0.0
  0
LINE
  5
CD0DB
  8
025
 10
0.531325
 20
0.940596
 30
0.0
 11
0.531325
 21
1.332755
 31
0.0
  0
LINE
  5
CD0DC
  8
025
 10
0.531325
 20
0.940596
 30
0.0
 11
0.234328
 21
1.012428
 31
0.0
  0
ARC
  5
CD0DD
  8
025
 10
0.371059
 20
1.592039
 30
0.0
 40
0.095178
 50
38.183971
 51
158.249048
  0
ARC
  5
CD0DE
  8
025
 10
0.029741
 20
1.369906
 30
0.0
 40
0.502105
 50
22.130003
 51
34.027207
  0
ARC
  5
CD0DF
  8
025
 10
1.2368
 20
1.31075
 30
0.0
 40
1.005284
 50
161.64551
 51
175.712788
  0
ARC
  5
CD0E0
  8
025
 10
-0.704299
 20
1.24972
 30
0.0
 40
1.238411
 50
3.844537
 51
14.464628
  0
ARC
  5
CD0E1
  8
025
 10
8.830985
 20
1.277902
 30
0.0
 40
8.832293
 50
174.676683
 51
180.985976
  0
ARC
  5
CD0E2
  8
025
 10
0.654005
 20
2.079206
 30
0.0
 40
0.617485
 50
141.536856
 51
152.015041
  0
ARC
  5
CD0E3
  8
025
 10
0.314351
 20
2.352999
 30
0.0
 40
0.180978
 50
70.399744
 51
141.414228
  0
ARC
  5
CD0E4
  8
025
 10
0.227015
 20
2.179626
 30
0.0
 40
0.373551
 50
16.581886
 51
68.146956
  0
ARC
  5
CD0E5
  8
025
 10
-1.204269
 20
1.644394
 30
0.0
 40
1.901232
 50
5.326278
 51
19.525993
  0
ARC
  5
CD0E6
  8
025
 10
1.415981
 20
1.881828
 30
0.0
 40
1.39507
 50
159.562986
 51
171.731692
  0
LINE
  5
CD0E7
  8
025
 10
0.431162
 20
3.706686
 30
0.0
 11
0.431162
 21
4.70461
 31
0.0
  0
LINE
  5
CD0E8
  8
025
 10
0.665456
 20
3.65002
 30
0.0
 11
0.665456
 21
4.647943
 31
0.0
  0
LINE
  5
CD0E9
  8
025
 10
0.431162
 20
3.706686
 30
0.0
 11
0.274966
 21
3.744464
 31
0.0
  0
LINE
  5
CD0EA
  8
025
 10
0.019846
 20
3.044746
 30
0.0
 11
0.019846
 21
5.092509
 31
0.0
  0
LINE
  5
CD0EB
  8
025
 10
0.019846
 20
6.237557
 30
0.0
 11
0.019846
 21
7.159926
 31
0.0
  0
LINE
  5
CD0EC
  8
025
 10
0.421014
 20
6.562617
 30
0.0
 11
0.738348
 21
6.728774
 31
0.0
  0
LINE
  5
CD0ED
  8
025
 10
0.738348
 20
6.263512
 30
0.0
 11
0.421014
 21
6.562617
 31
0.0
  0
LINE
  5
CD0EE
  8
025
 10
0.738348
 20
6.263512
 30
0.0
 11
0.738348
 21
6.728774
 31
0.0
  0
LINE
  5
CD0EF
  8
025
 10
0.019846
 20
8.303494
 30
0.0
 11
0.019846
 21
9.268698
 31
0.0
  0
LINE
  5
CD0F0
  8
025
 10
0.683663
 20
9.877763
 30
0.0
 11
0.019846
 21
9.268698
 31
0.0
  0
LINE
  5
CD0F1
  8
025
 10
0.019846
 20
10.038315
 30
0.0
 11
0.019846
 21
10.805291
 31
0.0
  0
LINE
  5
CD0F2
  8
025
 10
0.019846
 20
8.533405
 30
0.0
 11
0.019051
 21
8.532675
 31
0.0
  0
LINE
  5
CD0F3
  8
025
 10
0.683663
 20
9.877763
 30
0.0
 11
0.019846
 21
10.038315
 31
0.0
  0
LINE
  5
CD0F4
  8
025
 10
1.130109
 20
5.894254
 30
0.0
 11
0.993468
 21
6.023046
 31
0.0
  0
LINE
  5
CD0F5
  8
025
 10
1.131907
 20
4.823544
 30
0.0
 11
0.842479
 21
4.893546
 31
0.0
  0
LINE
  5
CD0F6
  8
025
 10
1.130109
 20
5.19107
 30
0.0
 11
1.130109
 21
5.894254
 31
0.0
  0
LINE
  5
CD0F7
  8
025
 10
1.130109
 20
1.579241
 30
0.0
 11
1.130109
 21
2.486046
 31
0.0
  0
LINE
  5
CD0F8
  8
025
 10
0.842479
 20
3.607205
 30
0.0
 11
0.842479
 21
4.893546
 31
0.0
  0
LINE
  5
CD0F9
  8
025
 10
1.130109
 20
2.776216
 30
0.0
 11
1.130109
 21
4.823979
 31
0.0
  0
LINE
  5
CD0FA
  8
025
 10
1.130109
 20
6.933901
 30
0.0
 11
1.130109
 21
7.741262
 31
0.0
  0
LINE
  5
CD0FB
  8
025
 10
0.993468
 20
6.862355
 30
0.0
 11
1.130109
 21
6.933901
 31
0.0
  0
LINE
  5
CD0FC
  8
025
 10
0.993468
 20
6.023046
 30
0.0
 11
0.993468
 21
6.862355
 31
0.0
  0
LINE
  5
CD0FD
  8
025
 10
1.130109
 20
8.034964
 30
0.0
 11
1.130109
 21
8.756284
 31
0.0
  0
LINE
  5
CD0FE
  8
025
 10
1.130109
 20
9.552094
 30
0.0
 11
1.130109
 21
10.536761
 31
0.0
  0
ENDBLK
  5
CD100
  8
0
  0
BLOCK
  8
0
  2
A$C12DE4CDB
 70
     0
 10
0.0
 20
0.0
 30
0.0
  3
A$C12DE4CDB
  1

  0
INSERT
  5
CD102
  8
BEM1
  2
A$C36291E6D
 10
0.0
 20
0.000001
 30
0.0
 41
1.563725
 42
1.563725
 43
1.563725
  0
ENDBLK
  5
CD104
  8
0
  0
BLOCK
  8
0
  2
A$C4A626044
 70
     0
 10
0.0
 20
0.0
 30
0.0
  3
A$C4A626044
  1

  0
INSERT
  5
CD106
  8
035
  2
A$C12DE4CDB
 10
92.573756
 20
171.454014
 30
0.0
 41
0.56
 42
0.56
 43
0.56
  0
INSERT
  5
CD107
  8
BEM1
 66
     1
  2
ZKOPF-REAN
 10
200.0
 20
0.0
 30
0.0
  0
ATTRIB
  5
CD108
  8
0
 62
     4
 10
184.833333
 20
37.0
 30
0.0
 40
2.5
  1
Battlogg
  7
SCRIPTS
 72
     1
 11
191.5
 21
37.0
 31
0.0
  2
NAME
 70
     0
  0
ATTRIB
  5
CD109
  8
0
 62
     4
 10
170.979167
 20
37.0
 30
0.0
 40
2.5
  1
01.02.01
 41
0.7
 51
15.0
 72
     1
 11
175.5
 21
37.0
 31
0.0
  2
DATE
 70
     0
  0
ATTRIB
  5
CD10A
  8
0
 62
     4
 10
119.5
 20
36.0
 30
0.0
 40
2.5
  1

 41
0.7
 51
15.0
 72
     1
 11
119.5
 21
36.0
 31
0.0
  2
WERKSTOFF
 70
     0
  0
ATTRIB
  5
CD10B
  8
0
 62
     2
 10
96.333333
 20
12.5
 30
0.0
 40
5.0
  1
NYS 352
 41
0.7
 51
15.0
 72
     1
 11
108.0
 21
12.5
 31
0.0
  2
BENENNUNG
 70
     0
  0
ATTRIB
  5
CD10C
  8
0
 62
     3
 10
90.95121
 20
21.082191
 30
0.0
 40
3.5
  1
Phono ("RCA") Type
 41
0.7
 51
15.0
 72
     1
 11
110.959543
 21
21.082191
 31
0.0
  2
TEIL
 70
     0
  0
ATTRIB
  5
CD10D
  8
0
 62
     3
 10
164.545614
 20
1.976541
 30
0.0
 40
3.5
  1
3102 ST 22 42
 41
0.7
 51
15.0
 72
     1
 11
179.449781
 21
1.976541
 31
0.0
  2
NUMMER
 70
     0
  0
ATTRIB
  5
CD10E
  8
0
 62
     2
 10
137.100662
 20
34.656056
 30
0.0
 40
5.0
  1
1:1
 41
0.7
 51
15.0
 72
     1
 11
139.433995
 21
34.656056
 31
0.0
  2
MASS
 70
     0
  0
ATTRIB
  5
CD10F
  8
0
 62
     3
 10
139.519299
 20
28.210451
 30
0.0
 40
3.5
  1

 41
0.7
 51
15.0
 72
     1
 11
139.519299
 21
28.210451
 31
0.0
  2
MASS2
 70
     0
  0
ATTRIB
  5
CD110
  8
0
 62
     4
 10
119.0
 20
29.0
 30
0.0
 40
2.5
  1

 41
0.7
 51
15.0
 72
     1
 11
119.0
 21
29.0
 31
0.0
  2
TEIL
 70
     0
  0
ATTRIB
  5
CD111
  8
0
 62
     3
 10
92.288548
 20
59.004319
 30
0.0
 40
3.5
  1

 41
0.7
 51
15.0
  2
TOL
 70
     0
  0
ATTRIB
  5
CD112
  8
0
 62
     3
 10
92.288548
 20
54.004319
 30
0.0
 40
3.5
  1

 41
0.7
 51
15.0
  2
RADIEN
 70
     0
  0
ATTRIB
  5
CD113
  8
0
 62
     3
 10
92.288548
 20
49.004319
 30
0.0
 40
3.5
  1

 41
0.7
 51
15.0
  2
FACETTE
 70
     0
  0
ATTRIB
  5
CD114
  8
0
 62
     4
 10
2.813733
 20
7.0
 30
0.0
 40
2.5
  1

 41
0.7
 51
15.0
  2
INDEX1
 70
     0
  0
ATTRIB
  5
CD115
  8
0
 62
     4
 10
9.651257
 20
7.0
 30
0.0
 40
2.5
  1

 41
0.7
 51
15.0
  2
A1
 70
     0
  0
ATTRIB
  5
CD116
  8
0
 62
     4
 10
42.651257
 20
7.0
 30
0.0
 40
2.5
  1

 41
0.7
 51
15.0
  2
DATUM1
 70
     0
  0
ATTRIB
  5
CD117
  8
0
 62
     4
 10
55.53501
 20
7.0
 30
0.0
 40
2.5
  1

 41
0.7
 51
15.0
  2
NAME1
 70
     0
  0
ATTRIB
  5
CD118
  8
0
 62
     4
 10
2.813733
 20
12.0
 30
0.0
 40
2.5
  1

 41
0.7
 51
15.0
  2
INDEX2
 70
     0
  0
ATTRIB
  5
CD119
  8
0
 62
     4
 10
9.651257
 20
12.0
 30
0.0
 40
2.5
  1

 41
0.7
 51
15.0
  2
A2
 70
     0
  0
ATTRIB
  5
CD11A
  8
0
 62
     4
 10
42.651257
 20
12.0
 30
0.0
 40
2.5
  1

 41
0.7
 51
15.0
  2
DATUM2
 70
     0
  0
ATTRIB
  5
CD11B
  8
0
 62
     4
 10
55.53501
 20
12.0
 30
0.0
 40
2.5
  1

 41
0.7
 51
15.0
  2
NAME2
 70
     0
  0
ATTRIB
  5
CD11C
  8
0
 62
     4
 10
2.813733
 20
17.0
 30
0.0
 40
2.5
  1

 41
0.7
 51
15.0
  2
INDEX3
 70
     0
  0
ATTRIB
  5
CD11D
  8
0
 62
     4
 10
9.651257
 20
17.0
 30
0.0
 40
2.5
  1

 41
0.7
 51
15.0
  2
A3
 70
     0
  0
ATTRIB
  5
CD11E
  8
0
 62
     4
 10
42.651257
 20
17.0
 30
0.0
 40
2.5
  1

 41
0.7
 51
15.0
  2
DATUM3
 70
     0
  0
ATTRIB
  5
CD11F
  8
0
 62
     4
 10
55.53501
 20
17.0
 30
0.0
 40
2.5
  1

 41
0.7
 51
15.0
  2
NAME3
 70
     0
  0
ATTRIB
  5
CD120
  8
0
 62
     4
 10
2.813733
 20
22.0
 30
0.0
 40
2.5
  1

 41
0.7
 51
15.0
  2
INDEX4
 70
     0
  0
ATTRIB
  5
CD121
  8
0
 62
     4
 10
9.651257
 20
22.0
 30
0.0
 40
2.5
  1

 41
0.7
 51
15.0
  2
A4
 70
     0
  0
ATTRIB
  5
CD122
  8
0
 62
     4
 10
42.651257
 20
22.0
 30
0.0
 40
2.5
  1

 41
0.7
 51
15.0
  2
DATUM4
 70
     0
  0
ATTRIB
  5
CD123
  8
0
 62
     4
 10
55.53501
 20
22.0
 30
0.0
 40
2.5
  1

 41
0.7
 51
15.0
  2
NAME4
 70
     0
  0
ATTRIB
  5
CD124
  8
0
 62
     4
 10
2.813733
 20
27.0
 30
0.0
 40
2.5
  1

 41
0.7
 51
15.0
  2
INDEX5
 70
     0
  0
ATTRIB
  5
CD125
  8
0
 62
     4
 10
9.651257
 20
27.0
 30
0.0
 40
2.5
  1

 41
0.7
 51
15.0
  2
A5
 70
     0
  0
ATTRIB
  5
CD126
  8
0
 62
     4
 10
42.651257
 20
27.0
 30
0.0
 40
2.5
  1

 41
0.7
 51
15.0
  2
DATUM5
 70
     0
  0
ATTRIB
  5
CD127
  8
0
 62
     4
 10
55.53501
 20
27.0
 30
0.0
 40
2.5
  1

 41
0.7
 51
15.0
  2
NAME5
 70
     0
  0
ATTRIB
  5
CD128
  8
0
 62
     4
 10
2.813733
 20
32.0
 30
0.0
 40
2.5
  1

 41
0.7
 51
15.0
  2
INDEX6
 70
     0
  0
ATTRIB
  5
CD129
  8
0
 62
     4
 10
9.651257
 20
32.0
 30
0.0
 40
2.5
  1

 41
0.7
 51
15.0
  2
A6
 70
     0
  0
ATTRIB
  5
CD12A
  8
0
 62
     4
 10
42.651257
 20
32.0
 30
0.0
 40
2.5
  1

 41
0.7
 51
15.0
  2
DATUM6
 70
     0
  0
ATTRIB
  5
CD12B
  8
0
 62
     4
 10
55.53501
 20
32.0
 30
0.0
 40
2.5
  1

 41
0.7
 51
15.0
  2
NAME6
 70
     0
  0
ATTRIB
  5
CD12C
  8
0
 62
     4
 10
2.813733
 20
37.0
 30
0.0
 40
2.5
  1

 41
0.7
 51
15.0
  2
INDEX7
 70
     0
  0
ATTRIB
  5
CD12D
  8
0
 62
     4
 10
9.651257
 20
37.0
 30
0.0
 40
2.5
  1

 41
0.7
 51
15.0
  2
A7
 70
     0
  0
ATTRIB
  5
CD12E
  8
0
 62
     4
 10
42.651257
 20
37.0
 30
0.0
 40
2.5
  1

 41
0.7
 51
15.0
  2
DATUM7
 70
     0
  0
ATTRIB
  5
CD12F
  8
0
 62
     4
 10
55.53501
 20
37.0
 30
0.0
 40
2.5
  1

 41
0.7
 51
15.0
  2
NAME7
 70
     0
  0
ATTRIB
  5
CD130
  8
0
 62
     4
 10
2.813733
 20
42.0
 30
0.0
 40
2.5
  1

 41
0.7
 51
15.0
  2
INDEX8
 70
     0
  0
ATTRIB
  5
CD131
  8
0
 62
     4
 10
9.651257
 20
42.0
 30
0.0
 40
2.5
  1

 41
0.7
 51
15.0
  2
A8
 70
     0
  0
ATTRIB
  5
CD132
  8
0
 62
     4
 10
42.651257
 20
42.0
 30
0.0
 40
2.5
  1

 41
0.7
 51
15.0
  2
DATUM8
 70
     0
  0
ATTRIB
  5
CD133
  8
0
 62
     4
 10
55.53501
 20
42.0
 30
0.0
 40
2.5
  1

 41
0.7
 51
15.0
  2
NAME8
 70
     0
  0
SEQEND
  5
CD134
  8
BEM1
  0
ENDBLK
  5
CD136
  8
0
  0
ENDSEC
  0
SECTION
  2
ENTITIES
  0
INSERT
  5
30
  8
ASHADE
 62
     1
  2
AVE_RENDER
 10
0.0
 20
0.0
 30
0.0
1001
AVE_RENDER
1002
{
1070
     2
1000
Pref
1070
    40
1070
    20
1070
     1
1070
     0
1000

1070
    10
1070
     0
1070
    30
1040
1.0
1070
     1
1040
0.3
1040
0.7
1040
0.0
1040
10.0
1010
-1.0
1020
-1.0
1030
-1.0
1040
0.3
1070
    49
1002
}
  0
INSERT
  5
31
  8
ASHADE
 62
     3
  2
AVE_RENDER
 10
0.0
 20
0.0
 30
0.0
1001
AVE_RENDER
1002
{
1070
     0
1000
Full Opt
1070
     0
1070
     1
1070
     1
1070
     1
1070
     0
1070
     0
1070
     0
1070
     1
1070
     1
1040
0.0001
1040
0.0001
1002
}
  0
INSERT
  5
32
  8
ASHADE
 62
     4
  2
AVE_RENDER
 10
0.0
 20
0.0
 30
0.0
1001
AVE_RENDER
1002
{
1070
     0
1000
Quick Opt
1070
     0
1070
     1
1070
     1
1070
     1
1070
     1
1070
     0
1070
     1
1002
}
  0
INSERT
  5
36
  8
05
  2
NT_1
 10
98.709341
 20
147.840651
 30
0.0
 41
32.617
 42
-6.863009
 43
32.617
  0
INSERT
  5
5EDB
  8
ASHADE
 62
     1
  2
AVE_RENDER
 10
139.258472
 20
319.744392
 30
0.0
1001
AVE_RENDER
1002
{
1070
     2
1000
Pref
1070
    40
1070
    20
1070
     1
1070
     0
1000

1070
    10
1070
     0
1070
    30
1040
1.0
1070
     1
1040
0.3
1040
0.7
1040
0.0
1040
10.0
1010
-1.0
1020
-1.0
1030
-1.0
1040
0.3
1070
    49
1002
}
  0
INSERT
  5
5EDC
  8
ASHADE
 62
     3
  2
AVE_RENDER
 10
139.258472
 20
319.744392
 30
0.0
1001
AVE_RENDER
1002
{
1070
     0
1000
Full Opt
1070
     0
1070
     1
1070
     1
1070
     1
1070
     0
1070
     0
1070
     0
1070
     1
1070
     1
1040
0.0001
1040
0.0001
1002
}
  0
INSERT
  5
5EDD
  8
ASHADE
 62
     4
  2
AVE_RENDER
 10
139.258472
 20
319.744392
 30
0.0
1001
AVE_RENDER
1002
{
1070
     0
1000
Quick Opt
1070
     0
1070
     1
1070
     1
1070
     1
1070
     1
1070
     0
1070
     1
1002
}
  0
INSERT
  5
5EDE
  8
05
  2
NT_1
 10
237.967814
 20
467.585043
 30
0.0
 41
32.617
 42
-6.863009
 43
32.617
  0
TEXT
  5
6557
  8
035
 10
742.33536
 20
834.371811
 30
0.0
 40
3.5
  1
  
 41
0.7
 51
15.0
  0
INSERT
  5
6C6B
  8
ASHADE
 62
     1
  2
AVE_RENDER
 10
14.105509
 20
318.025486
 30
0.0
1001
AVE_RENDER
1002
{
1070
     2
1000
Pref
1070
    40
1070
    20
1070
     1
1070
     0
1000

1070
    10
1070
     0
1070
    30
1040
1.0
1070
     1
1040
0.3
1040
0.7
1040
0.0
1040
10.0
1010
-1.0
1020
-1.0
1030
-1.0
1040
0.3
1070
    49
1002
}
  0
INSERT
  5
6C6C
  8
ASHADE
 62
     3
  2
AVE_RENDER
 10
14.105509
 20
318.025486
 30
0.0
1001
AVE_RENDER
1002
{
1070
     0
1000
Full Opt
1070
     0
1070
     1
1070
     1
1070
     1
1070
     0
1070
     0
1070
     0
1070
     1
1070
     1
1040
0.0001
1040
0.0001
1002
}
  0
INSERT
  5
6C6D
  8
ASHADE
 62
     4
  2
AVE_RENDER
 10
14.105509
 20
318.025486
 30
0.0
1001
AVE_RENDER
1002
{
1070
     0
1000
Quick Opt
1070
     0
1070
     1
1070
     1
1070
     1
1070
     1
1070
     0
1070
     1
1002
}
  0
INSERT
  5
6C71
  8
05
  2
NT_1
 10
112.81485
 20
465.866137
 30
0.0
 41
32.617
 42
-6.863009
 43
32.617
  0
INSERT
  5
CB16
  8
ASHADE
 62
     1
  2
AVE_RENDER
 10
153.363981
 20
637.769878
 30
0.0
1001
AVE_RENDER
1002
{
1070
     2
1000
Pref
1070
    40
1070
    20
1070
     1
1070
     0
1000

1070
    10
1070
     0
1070
    30
1040
1.0
1070
     1
1040
0.3
1040
0.7
1040
0.0
1040
10.0
1010
-1.0
1020
-1.0
1030
-1.0
1040
0.3
1070
    49
1002
}
  0
INSERT
  5
CB17
  8
ASHADE
 62
     3
  2
AVE_RENDER
 10
153.363981
 20
637.769878
 30
0.0
1001
AVE_RENDER
1002
{
1070
     0
1000
Full Opt
1070
     0
1070
     1
1070
     1
1070
     1
1070
     0
1070
     0
1070
     0
1070
     1
1070
     1
1040
0.0001
1040
0.0001
1002
}
  0
INSERT
  5
CB18
  8
ASHADE
 62
     4
  2
AVE_RENDER
 10
153.363981
 20
637.769878
 30
0.0
1001
AVE_RENDER
1002
{
1070
     0
1000
Quick Opt
1070
     0
1070
     1
1070
     1
1070
     1
1070
     1
1070
     0
1070
     1
1002
}
  0
INSERT
  5
CB19
  8
05
  2
NT_1
 10
252.073323
 20
785.610529
 30
0.0
 41
32.617
 42
-6.863009
 43
32.617
  0
TEXT
  5
CE91
  8
025
 10
457.333144
 20
249.370153
 30
0.0
 40
2.5
  1

 41
0.9
 51
10.0
  7
HELV
  0
INSERT
  5
D021
  8
ASHADE
 62
     1
  2
AVE_RENDER
 10
177.792624
 20
318.451751
 30
0.0
1001
AVE_RENDER
1002
{
1070
     2
1000
Pref
1070
    40
1070
    20
1070
     1
1070
     0
1000

1070
    10
1070
     0
1070
    30
1040
1.0
1070
     1
1040
0.3
1040
0.7
1040
0.0
1040
10.0
1010
-1.0
1020
-1.0
1030
-1.0
1040
0.3
1070
    49
1002
}
  0
INSERT
  5
D022
  8
ASHADE
 62
     3
  2
AVE_RENDER
 10
177.792624
 20
318.451751
 30
0.0
1001
AVE_RENDER
1002
{
1070
     0
1000
Full Opt
1070
     0
1070
     1
1070
     1
1070
     1
1070
     0
1070
     0
1070
     0
1070
     1
1070
     1
1040
0.0001
1040
0.0001
1002
}
  0
INSERT
  5
D023
  8
ASHADE
 62
     4
  2
AVE_RENDER
 10
177.792624
 20
318.451751
 30
0.0
1001
AVE_RENDER
1002
{
1070
     0
1000
Quick Opt
1070
     0
1070
     1
1070
     1
1070
     1
1070
     1
1070
     0
1070
     1
1002
}
  0
INSERT
  5
D027
  8
05
  2
NT_1
 10
276.501965
 20
466.292402
 30
0.0
 41
32.617
 42
-6.863009
 43
32.617
  0
INSERT
  5
F83A
  8
ASHADE
 62
     1
  2
AVE_RENDER
 10
483.644127
 20
320.062437
 30
0.0
1001
AVE_RENDER
1002
{
1070
     2
1000
Pref
1070
    40
1070
    20
1070
     1
1070
     0
1000

1070
    10
1070
     0
1070
    30
1040
1.0
1070
     1
1040
0.3
1040
0.7
1040
0.0
1040
10.0
1010
-1.0
1020
-1.0
1030
-1.0
1040
0.3
1070
    49
1002
}
  0
INSERT
  5
F83B
  8
ASHADE
 62
     3
  2
AVE_RENDER
 10
483.644127
 20
320.062437
 30
0.0
1001
AVE_RENDER
1002
{
1070
     0
1000
Full Opt
1070
     0
1070
     1
1070
     1
1070
     1
1070
     0
1070
     0
1070
     0
1070
     1
1070
     1
1040
0.0001
1040
0.0001
1002
}
  0
INSERT
  5
F83C
  8
ASHADE
 62
     4
  2
AVE_RENDER
 10
483.644127
 20
320.062437
 30
0.0
1001
AVE_RENDER
1002
{
1070
     0
1000
Quick Opt
1070
     0
1070
     1
1070
     1
1070
     1
1070
     1
1070
     0
1070
     1
1002
}
  0
INSERT
  5
F840
  8
05
  2
NT_1
 10
582.353468
 20
467.903088
 30
0.0
 41
32.617
 42
-6.863009
 43
32.617
  0
INSERT
  5
13B62
  8
025
  2
ACAD
 10
177.792624
 20
318.451751
 30
0.0
  0
INSERT
  5
18666
  8
ASHADE
 62
     1
  2
AVE_RENDER
 10
474.792624
 20
318.451751
 30
0.0
1001
AVE_RENDER
1002
{
1070
     2
1000
Pref
1070
    40
1070
    20
1070
     1
1070
     0
1000

1070
    10
1070
     0
1070
    30
1040
1.0
1070
     1
1040
0.3
1040
0.7
1040
0.0
1040
10.0
1010
-1.0
1020
-1.0
1030
-1.0
1040
0.3
1070
    49
1002
}
  0
INSERT
  5
18667
  8
ASHADE
 62
     3
  2
AVE_RENDER
 10
474.792624
 20
318.451751
 30
0.0
1001
AVE_RENDER
1002
{
1070
     0
1000
Full Opt
1070
     0
1070
     1
1070
     1
1070
     1
1070
     0
1070
     0
1070
     0
1070
     1
1070
     1
1040
0.0001
1040
0.0001
1002
}
  0
INSERT
  5
18668
  8
ASHADE
 62
     4
  2
AVE_RENDER
 10
474.792624
 20
318.451751
 30
0.0
1001
AVE_RENDER
1002
{
1070
     0
1000
Quick Opt
1070
     0
1070
     1
1070
     1
1070
     1
1070
     1
1070
     0
1070
     1
1002
}
  0
INSERT
  5
1866C
  8
05
  2
NT_1
 10
573.501965
 20
466.292402
 30
0.0
 41
32.617
 42
-6.863009
 43
32.617
  0
INSERT
  5
1AE7F
  8
ASHADE
 62
     1
  2
AVE_RENDER
 10
780.644127
 20
320.062437
 30
0.0
1001
AVE_RENDER
1002
{
1070
     2
1000
Pref
1070
    40
1070
    20
1070
     1
1070
     0
1000

1070
    10
1070
     0
1070
    30
1040
1.0
1070
     1
1040
0.3
1040
0.7
1040
0.0
1040
10.0
1010
-1.0
1020
-1.0
1030
-1.0
1040
0.3
1070
    49
1002
}
  0
INSERT
  5
1AE80
  8
ASHADE
 62
     3
  2
AVE_RENDER
 10
780.644127
 20
320.062437
 30
0.0
1001
AVE_RENDER
1002
{
1070
     0
1000
Full Opt
1070
     0
1070
     1
1070
     1
1070
     1
1070
     0
1070
     0
1070
     0
1070
     1
1070
     1
1040
0.0001
1040
0.0001
1002
}
  0
INSERT
  5
1AE81
  8
ASHADE
 62
     4
  2
AVE_RENDER
 10
780.644127
 20
320.062437
 30
0.0
1001
AVE_RENDER
1002
{
1070
     0
1000
Quick Opt
1070
     0
1070
     1
1070
     1
1070
     1
1070
     1
1070
     0
1070
     1
1002
}
  0
INSERT
  5
1AE85
  8
05
  2
NT_1
 10
879.353468
 20
467.903088
 30
0.0
 41
32.617
 42
-6.863009
 43
32.617
  0
INSERT
  5
1F1A7
  8
025
  2
ACAD
 10
474.792624
 20
318.451751
 30
0.0
  0
INSERT
  5
2812E
  8
ASHADE
 62
     1
  2
AVE_RENDER
 10
248.196721
 20
315.779426
 30
0.0
1001
AVE_RENDER
1002
{
1070
     2
1000
Pref
1070
    40
1070
    20
1070
     1
1070
     0
1000

1070
    10
1070
     0
1070
    30
1040
1.0
1070
     1
1040
0.3
1040
0.7
1040
0.0
1040
10.0
1010
-1.0
1020
-1.0
1030
-1.0
1040
0.3
1070
    49
1002
}
  0
INSERT
  5
2812F
  8
ASHADE
 62
     3
  2
AVE_RENDER
 10
248.196721
 20
315.779426
 30
0.0
1001
AVE_RENDER
1002
{
1070
     0
1000
Full Opt
1070
     0
1070
     1
1070
     1
1070
     1
1070
     0
1070
     0
1070
     0
1070
     1
1070
     1
1040
0.0001
1040
0.0001
1002
}
  0
INSERT
  5
28130
  8
ASHADE
 62
     4
  2
AVE_RENDER
 10
248.196721
 20
315.779426
 30
0.0
1001
AVE_RENDER
1002
{
1070
     0
1000
Quick Opt
1070
     0
1070
     1
1070
     1
1070
     1
1070
     1
1070
     0
1070
     1
1002
}
  0
INSERT
  5
28134
  8
05
  2
NT_1
 10
346.906063
 20
463.620077
 30
0.0
 41
32.617
 42
-6.863009
 43
32.617
  0
INSERT
  5
2A313
  8
ASHADE
 62
     1
  2
AVE_RENDER
 10
222.35218
 20
320.233299
 30
0.0
1001
AVE_RENDER
1002
{
1070
     2
1000
Pref
1070
    40
1070
    20
1070
     1
1070
     0
1000

1070
    10
1070
     0
1070
    30
1040
1.0
1070
     1
1040
0.3
1040
0.7
1040
0.0
1040
10.0
1010
-1.0
1020
-1.0
1030
-1.0
1040
0.3
1070
    49
1002
}
  0
INSERT
  5
2A314
  8
ASHADE
 62
     3
  2
AVE_RENDER
 10
222.35218
 20
320.233299
 30
0.0
1001
AVE_RENDER
1002
{
1070
     0
1000
Full Opt
1070
     0
1070
     1
1070
     1
1070
     1
1070
     0
1070
     0
1070
     0
1070
     1
1070
     1
1040
0.0001
1040
0.0001
1002
}
  0
INSERT
  5
2A315
  8
ASHADE
 62
     4
  2
AVE_RENDER
 10
222.35218
 20
320.233299
 30
0.0
1001
AVE_RENDER
1002
{
1070
     0
1000
Quick Opt
1070
     0
1070
     1
1070
     1
1070
     1
1070
     1
1070
     0
1070
     1
1002
}
  0
INSERT
  5
2A319
  8
05
  2
NT_1
 10
321.061521
 20
468.07395
 30
0.0
 41
32.617
 42
-6.863009
 43
32.617
  0
INSERT
  5
2BC33
  8
025
  2
ACAD
 10
0.0
 20
0.0
 30
0.0
  0
INSERT
  5
2C19F
  8
BEM1
  2
ACAD
 10
0.0
 20
0.0
 30
0.0
  0
TEXT
  5
2DD8B
  8
035
 10
950.789697
 20
673.501532
 30
0.0
 40
3.5
  1
  
 41
0.7
 51
15.0
  0
TEXT
  5
2DF0A
  8
035
 10
978.473652
 20
819.610505
 30
0.0
 40
3.5
  1
  
 41
0.7
 51
15.0
  0
TEXT
  5
2DF0B
  8
035
 10
928.481666
 20
938.699275
 30
0.0
 40
3.5
  1
  
 41
0.7
 51
15.0
  0
TEXT
  5
2DF0C
  8
035
 10
1009.084384
 20
848.696259
 30
0.0
 40
3.5
  1
  
 41
0.7
 51
15.0
  0
TEXT
  5
2DF0D
  8
035
 10
959.092399
 20
967.785029
 30
0.0
 40
3.5
  1
  
 41
0.7
 51
15.0
  0
TEXT
  5
2DF0E
  8
035
 10
978.473652
 20
819.610505
 30
0.0
 40
3.5
  1
  
 41
0.7
 51
15.0
  0
TEXT
  5
2DF0F
  8
035
 10
928.481666
 20
938.699275
 30
0.0
 40
3.5
  1
  
 41
0.7
 51
15.0
  0
TEXT
  5
2DF10
  8
035
 10
1152.77774
 20
1044.456036
 30
0.0
 40
3.5
  1
  
 41
0.7
 51
15.0
  0
TEXT
  5
2DF11
  8
035
 10
1102.785755
 20
1163.544806
 30
0.0
 40
3.5
  1
  
 41
0.7
 51
15.0
  0
INSERT
  5
2E1B5
  8
ASHADE
 62
     1
  2
AVE_RENDER
 10
244.824194
 20
199.991892
 30
0.0
1001
AVE_RENDER
1002
{
1070
     2
1000
Pref
1070
    40
1070
    20
1070
     1
1070
     0
1000

1070
    10
1070
     0
1070
    30
1040
1.0
1070
     1
1040
0.3
1040
0.7
1040
0.0
1040
10.0
1010
-1.0
1020
-1.0
1030
-1.0
1040
0.3
1070
    49
1002
}
  0
INSERT
  5
2E1B6
  8
ASHADE
 62
     3
  2
AVE_RENDER
 10
244.824194
 20
199.991892
 30
0.0
1001
AVE_RENDER
1002
{
1070
     0
1000
Full Opt
1070
     0
1070
     1
1070
     1
1070
     1
1070
     0
1070
     0
1070
     0
1070
     1
1070
     1
1040
0.0001
1040
0.0001
1002
}
  0
INSERT
  5
2E1B7
  8
ASHADE
 62
     4
  2
AVE_RENDER
 10
244.824194
 20
199.991892
 30
0.0
1001
AVE_RENDER
1002
{
1070
     0
1000
Quick Opt
1070
     0
1070
     1
1070
     1
1070
     1
1070
     1
1070
     0
1070
     1
1002
}
  0
INSERT
  5
2E1BB
  8
05
  2
NT_1
 10
343.533535
 20
347.832544
 30
0.0
 41
32.617
 42
-6.863009
 43
32.617
  0
INSERT
  5
309CE
  8
ASHADE
 62
     1
  2
AVE_RENDER
 10
550.675697
 20
201.602579
 30
0.0
1001
AVE_RENDER
1002
{
1070
     2
1000
Pref
1070
    40
1070
    20
1070
     1
1070
     0
1000

1070
    10
1070
     0
1070
    30
1040
1.0
1070
     1
1040
0.3
1040
0.7
1040
0.0
1040
10.0
1010
-1.0
1020
-1.0
1030
-1.0
1040
0.3
1070
    49
1002
}
  0
INSERT
  5
309CF
  8
ASHADE
 62
     3
  2
AVE_RENDER
 10
550.675697
 20
201.602579
 30
0.0
1001
AVE_RENDER
1002
{
1070
     0
1000
Full Opt
1070
     0
1070
     1
1070
     1
1070
     1
1070
     0
1070
     0
1070
     0
1070
     1
1070
     1
1040
0.0001
1040
0.0001
1002
}
  0
INSERT
  5
309D0
  8
ASHADE
 62
     4
  2
AVE_RENDER
 10
550.675697
 20
201.602579
 30
0.0
1001
AVE_RENDER
1002
{
1070
     0
1000
Quick Opt
1070
     0
1070
     1
1070
     1
1070
     1
1070
     1
1070
     0
1070
     1
1002
}
  0
INSERT
  5
309D4
  8
05
  2
NT_1
 10
649.385038
 20
349.44323
 30
0.0
 41
32.617
 42
-6.863009
 43
32.617
  0
INSERT
  5
34CF6
  8
025
  2
ACAD
 10
244.824194
 20
199.991892
 30
0.0
  0
INSERT
  5
397FA
  8
ASHADE
 62
     1
  2
AVE_RENDER
 10
541.824194
 20
199.991892
 30
0.0
1001
AVE_RENDER
1002
{
1070
     2
1000
Pref
1070
    40
1070
    20
1070
     1
1070
     0
1000

1070
    10
1070
     0
1070
    30
1040
1.0
1070
     1
1040
0.3
1040
0.7
1040
0.0
1040
10.0
1010
-1.0
1020
-1.0
1030
-1.0
1040
0.3
1070
    49
1002
}
  0
INSERT
  5
397FB
  8
ASHADE
 62
     3
  2
AVE_RENDER
 10
541.824194
 20
199.991892
 30
0.0
1001
AVE_RENDER
1002
{
1070
     0
1000
Full Opt
1070
     0
1070
     1
1070
     1
1070
     1
1070
     0
1070
     0
1070
     0
1070
     1
1070
     1
1040
0.0001
1040
0.0001
1002
}
  0
INSERT
  5
397FC
  8
ASHADE
 62
     4
  2
AVE_RENDER
 10
541.824194
 20
199.991892
 30
0.0
1001
AVE_RENDER
1002
{
1070
     0
1000
Quick Opt
1070
     0
1070
     1
1070
     1
1070
     1
1070
     1
1070
     0
1070
     1
1002
}
  0
INSERT
  5
39800
  8
05
  2
NT_1
 10
640.533535
 20
347.832544
 30
0.0
 41
32.617
 42
-6.863009
 43
32.617
  0
INSERT
  5
3C013
  8
ASHADE
 62
     1
  2
AVE_RENDER
 10
847.675697
 20
201.602579
 30
0.0
1001
AVE_RENDER
1002
{
1070
     2
1000
Pref
1070
    40
1070
    20
1070
     1
1070
     0
1000

1070
    10
1070
     0
1070
    30
1040
1.0
1070
     1
1040
0.3
1040
0.7
1040
0.0
1040
10.0
1010
-1.0
1020
-1.0
1030
-1.0
1040
0.3
1070
    49
1002
}
  0
INSERT
  5
3C014
  8
ASHADE
 62
     3
  2
AVE_RENDER
 10
847.675697
 20
201.602579
 30
0.0
1001
AVE_RENDER
1002
{
1070
     0
1000
Full Opt
1070
     0
1070
     1
1070
     1
1070
     1
1070
     0
1070
     0
1070
     0
1070
     1
1070
     1
1040
0.0001
1040
0.0001
1002
}
  0
INSERT
  5
3C015
  8
ASHADE
 62
     4
  2
AVE_RENDER
 10
847.675697
 20
201.602579
 30
0.0
1001
AVE_RENDER
1002
{
1070
     0
1000
Quick Opt
1070
     0
1070
     1
1070
     1
1070
     1
1070
     1
1070
     0
1070
     1
1002
}
  0
INSERT
  5
3C019
  8
05
  2
NT_1
 10
946.385038
 20
349.44323
 30
0.0
 41
32.617
 42
-6.863009
 43
32.617
  0
INSERT
  5
4033B
  8
025
  2
ACAD
 10
541.824194
 20
199.991892
 30
0.0
  0
INSERT
  5
46838
  8
ASHADE
 62
     1
  2
AVE_RENDER
 10
246.400491
 20
209.836093
 30
0.0
1001
AVE_RENDER
1002
{
1070
     2
1000
Pref
1070
    40
1070
    20
1070
     1
1070
     0
1000

1070
    10
1070
     0
1070
    30
1040
1.0
1070
     1
1040
0.3
1040
0.7
1040
0.0
1040
10.0
1010
-1.0
1020
-1.0
1030
-1.0
1040
0.3
1070
    49
1002
}
  0
INSERT
  5
46839
  8
ASHADE
 62
     3
  2
AVE_RENDER
 10
246.400491
 20
209.836093
 30
0.0
1001
AVE_RENDER
1002
{
1070
     0
1000
Full Opt
1070
     0
1070
     1
1070
     1
1070
     1
1070
     0
1070
     0
1070
     0
1070
     1
1070
     1
1040
0.0001
1040
0.0001
1002
}
  0
INSERT
  5
4683A
  8
ASHADE
 62
     4
  2
AVE_RENDER
 10
246.400491
 20
209.836093
 30
0.0
1001
AVE_RENDER
1002
{
1070
     0
1000
Quick Opt
1070
     0
1070
     1
1070
     1
1070
     1
1070
     1
1070
     0
1070
     1
1002
}
  0
INSERT
  5
4683E
  8
05
  2
NT_1
 10
345.109832
 20
357.676744
 30
0.0
 41
32.617
 42
-6.863009
 43
32.617
  0
INSERT
  5
49CC2
  8
05
  2
ACAD
 10
246.400491
 20
209.836093
 30
0.0
  0
INSERT
  5
A6093
  8
ASHADE
 62
     1
  2
AVE_RENDER
 10
246.400491
 20
419.836093
 30
0.0
1001
AVE_RENDER
1002
{
1070
     2
1000
Pref
1070
    40
1070
    20
1070
     1
1070
     0
1000

1070
    10
1070
     0
1070
    30
1040
1.0
1070
     1
1040
0.3
1040
0.7
1040
0.0
1040
10.0
1010
-1.0
1020
-1.0
1030
-1.0
1040
0.3
1070
    49
1002
}
  0
INSERT
  5
A6094
  8
ASHADE
 62
     3
  2
AVE_RENDER
 10
246.400491
 20
419.836093
 30
0.0
1001
AVE_RENDER
1002
{
1070
     0
1000
Full Opt
1070
     0
1070
     1
1070
     1
1070
     1
1070
     0
1070
     0
1070
     0
1070
     1
1070
     1
1040
0.0001
1040
0.0001
1002
}
  0
INSERT
  5
A6095
  8
ASHADE
 62
     4
  2
AVE_RENDER
 10
246.400491
 20
419.836093
 30
0.0
1001
AVE_RENDER
1002
{
1070
     0
1000
Quick Opt
1070
     0
1070
     1
1070
     1
1070
     1
1070
     1
1070
     0
1070
     1
1002
}
  0
INSERT
  5
A6096
  8
05
  2
NT_1
 10
345.109832
 20
567.676744
 30
0.0
 41
32.617
 42
-6.863009
 43
32.617
  0
INSERT
  5
A627D
  8
05
  2
ACAD
 10
246.400491
 20
419.836093
 30
0.0
  0
INSERT
  5
A6356
  8
ASHADE
 62
     1
  2
AVE_RENDER
 10
543.400491
 20
419.836093
 30
0.0
1001
AVE_RENDER
1002
{
1070
     2
1000
Pref
1070
    40
1070
    20
1070
     1
1070
     0
1000

1070
    10
1070
     0
1070
    30
1040
1.0
1070
     1
1040
0.3
1040
0.7
1040
0.0
1040
10.0
1010
-1.0
1020
-1.0
1030
-1.0
1040
0.3
1070
    49
1002
}
  0
INSERT
  5
A6357
  8
ASHADE
 62
     3
  2
AVE_RENDER
 10
543.400491
 20
419.836093
 30
0.0
1001
AVE_RENDER
1002
{
1070
     0
1000
Full Opt
1070
     0
1070
     1
1070
     1
1070
     1
1070
     0
1070
     0
1070
     0
1070
     1
1070
     1
1040
0.0001
1040
0.0001
1002
}
  0
INSERT
  5
A6358
  8
ASHADE
 62
     4
  2
AVE_RENDER
 10
543.400491
 20
419.836093
 30
0.0
1001
AVE_RENDER
1002
{
1070
     0
1000
Quick Opt
1070
     0
1070
     1
1070
     1
1070
     1
1070
     1
1070
     0
1070
     1
1002
}
  0
INSERT
  5
A6359
  8
05
  2
NT_1
 10
642.109832
 20
567.676744
 30
0.0
 41
32.617
 42
-6.863009
 43
32.617
  0
INSERT
  5
A635A
  8
05
  2
ACAD
 10
543.400491
 20
419.836093
 30
0.0
  0
INSERT
  5
A635B
  8
ASHADE
 62
     1
  2
AVE_RENDER
 10
543.400491
 20
419.836093
 30
0.0
1001
AVE_RENDER
1002
{
1070
     2
1000
Pref
1070
    40
1070
    20
1070
     1
1070
     0
1000

1070
    10
1070
     0
1070
    30
1040
1.0
1070
     1
1040
0.3
1040
0.7
1040
0.0
1040
10.0
1010
-1.0
1020
-1.0
1030
-1.0
1040
0.3
1070
    49
1002
}
  0
INSERT
  5
A635C
  8
ASHADE
 62
     3
  2
AVE_RENDER
 10
543.400491
 20
419.836093
 30
0.0
1001
AVE_RENDER
1002
{
1070
     0
1000
Full Opt
1070
     0
1070
     1
1070
     1
1070
     1
1070
     0
1070
     0
1070
     0
1070
     1
1070
     1
1040
0.0001
1040
0.0001
1002
}
  0
INSERT
  5
A635D
  8
ASHADE
 62
     4
  2
AVE_RENDER
 10
543.400491
 20
419.836093
 30
0.0
1001
AVE_RENDER
1002
{
1070
     0
1000
Quick Opt
1070
     0
1070
     1
1070
     1
1070
     1
1070
     1
1070
     0
1070
     1
1002
}
  0
INSERT
  5
A635E
  8
05
  2
NT_1
 10
642.109832
 20
567.676744
 30
0.0
 41
32.617
 42
-6.863009
 43
32.617
  0
INSERT
  5
A6366
  8
05
  2
ACAD
 10
543.400491
 20
419.836093
 30
0.0
  0
INSERT
  5
A63C1
  8
ASHADE
 62
     1
  2
AVE_RENDER
 10
562.504165
 20
417.847419
 30
0.0
1001
AVE_RENDER
1002
{
1070
     2
1000
Pref
1070
    40
1070
    20
1070
     1
1070
     0
1000

1070
    10
1070
     0
1070
    30
1040
1.0
1070
     1
1040
0.3
1040
0.7
1040
0.0
1040
10.0
1010
-1.0
1020
-1.0
1030
-1.0
1040
0.3
1070
    49
1002
}
  0
INSERT
  5
A63C2
  8
ASHADE
 62
     3
  2
AVE_RENDER
 10
562.504165
 20
417.847419
 30
0.0
1001
AVE_RENDER
1002
{
1070
     0
1000
Full Opt
1070
     0
1070
     1
1070
     1
1070
     1
1070
     0
1070
     0
1070
     0
1070
     1
1070
     1
1040
0.0001
1040
0.0001
1002
}
  0
INSERT
  5
A63C3
  8
ASHADE
 62
     4
  2
AVE_RENDER
 10
562.504165
 20
417.847419
 30
0.0
1001
AVE_RENDER
1002
{
1070
     0
1000
Quick Opt
1070
     0
1070
     1
1070
     1
1070
     1
1070
     1
1070
     0
1070
     1
1002
}
  0
INSERT
  5
A63C4
  8
05
  2
NT_1
 10
661.213507
 20
565.688071
 30
0.0
 41
32.617
 42
-6.863009
 43
32.617
  0
INSERT
  5
A63F3
  8
05
  2
ACAD
 10
562.504165
 20
417.847419
 30
0.0
  0
TEXT
  5
A645C
  8
035
 10
1065.919528
 20
886.442792
 30
0.0
 40
3.5
  1
  
 41
0.7
 51
15.0
  0
INSERT
  5
A6463
  8
ASHADE
 62
     1
  2
AVE_RENDER
 10
543.400491
 20
419.836093
 30
0.0
1001
AVE_RENDER
1002
{
1070
     2
1000
Pref
1070
    40
1070
    20
1070
     1
1070
     0
1000

1070
    10
1070
     0
1070
    30
1040
1.0
1070
     1
1040
0.3
1040
0.7
1040
0.0
1040
10.0
1010
-1.0
1020
-1.0
1030
-1.0
1040
0.3
1070
    49
1002
}
  0
INSERT
  5
A6464
  8
ASHADE
 62
     3
  2
AVE_RENDER
 10
543.400491
 20
419.836093
 30
0.0
1001
AVE_RENDER
1002
{
1070
     0
1000
Full Opt
1070
     0
1070
     1
1070
     1
1070
     1
1070
     0
1070
     0
1070
     0
1070
     1
1070
     1
1040
0.0001
1040
0.0001
1002
}
  0
INSERT
  5
A6465
  8
ASHADE
 62
     4
  2
AVE_RENDER
 10
543.400491
 20
419.836093
 30
0.0
1001
AVE_RENDER
1002
{
1070
     0
1000
Quick Opt
1070
     0
1070
     1
1070
     1
1070
     1
1070
     1
1070
     0
1070
     1
1002
}
  0
INSERT
  5
A6466
  8
05
  2
NT_1
 10
642.109832
 20
567.676744
 30
0.0
 41
32.617
 42
-6.863009
 43
32.617
  0
INSERT
  5
A6652
  8
05
  2
ACAD
 10
543.400491
 20
419.836093
 30
0.0
  0
INSERT
  5
A6797
  8
ASHADE
 62
     1
  2
AVE_RENDER
 10
840.400491
 20
419.836093
 30
0.0
1001
AVE_RENDER
1002
{
1070
     2
1000
Pref
1070
    40
1070
    20
1070
     1
1070
     0
1000

1070
    10
1070
     0
1070
    30
1040
1.0
1070
     1
1040
0.3
1040
0.7
1040
0.0
1040
10.0
1010
-1.0
1020
-1.0
1030
-1.0
1040
0.3
1070
    49
1002
}
  0
INSERT
  5
A6798
  8
ASHADE
 62
     3
  2
AVE_RENDER
 10
840.400491
 20
419.836093
 30
0.0
1001
AVE_RENDER
1002
{
1070
     0
1000
Full Opt
1070
     0
1070
     1
1070
     1
1070
     1
1070
     0
1070
     0
1070
     0
1070
     1
1070
     1
1040
0.0001
1040
0.0001
1002
}
  0
INSERT
  5
A6799
  8
ASHADE
 62
     4
  2
AVE_RENDER
 10
840.400491
 20
419.836093
 30
0.0
1001
AVE_RENDER
1002
{
1070
     0
1000
Quick Opt
1070
     0
1070
     1
1070
     1
1070
     1
1070
     1
1070
     0
1070
     1
1002
}
  0
INSERT
  5
A679A
  8
05
  2
NT_1
 10
939.109832
 20
567.676744
 30
0.0
 41
32.617
 42
-6.863009
 43
32.617
  0
INSERT
  5
A67B9
  8
05
  2
ACAD
 10
840.400491
 20
419.836093
 30
0.0
  0
INSERT
  5
A67C1
  8
ASHADE
 62
     1
  2
AVE_RENDER
 10
840.400491
 20
419.836093
 30
0.0
1001
AVE_RENDER
1002
{
1070
     2
1000
Pref
1070
    40
1070
    20
1070
     1
1070
     0
1000

1070
    10
1070
     0
1070
    30
1040
1.0
1070
     1
1040
0.3
1040
0.7
1040
0.0
1040
10.0
1010
-1.0
1020
-1.0
1030
-1.0
1040
0.3
1070
    49
1002
}
  0
INSERT
  5
A67C2
  8
ASHADE
 62
     3
  2
AVE_RENDER
 10
840.400491
 20
419.836093
 30
0.0
1001
AVE_RENDER
1002
{
1070
     0
1000
Full Opt
1070
     0
1070
     1
1070
     1
1070
     1
1070
     0
1070
     0
1070
     0
1070
     1
1070
     1
1040
0.0001
1040
0.0001
1002
}
  0
INSERT
  5
A67C3
  8
ASHADE
 62
     4
  2
AVE_RENDER
 10
840.400491
 20
419.836093
 30
0.0
1001
AVE_RENDER
1002
{
1070
     0
1000
Quick Opt
1070
     0
1070
     1
1070
     1
1070
     1
1070
     1
1070
     0
1070
     1
1002
}
  0
INSERT
  5
A67C4
  8
05
  2
NT_1
 10
939.109832
 20
567.676744
 30
0.0
 41
32.617
 42
-6.863009
 43
32.617
  0
INSERT
  5
A67CC
  8
05
  2
ACAD
 10
840.400491
 20
419.836093
 30
0.0
  0
INSERT
  5
A682D
  8
ASHADE
 62
     1
  2
AVE_RENDER
 10
543.400491
 20
209.836093
 30
0.0
1001
AVE_RENDER
1002
{
1070
     2
1000
Pref
1070
    40
1070
    20
1070
     1
1070
     0
1000

1070
    10
1070
     0
1070
    30
1040
1.0
1070
     1
1040
0.3
1040
0.7
1040
0.0
1040
10.0
1010
-1.0
1020
-1.0
1030
-1.0
1040
0.3
1070
    49
1002
}
  0
INSERT
  5
A682E
  8
ASHADE
 62
     3
  2
AVE_RENDER
 10
543.400491
 20
209.836093
 30
0.0
1001
AVE_RENDER
1002
{
1070
     0
1000
Full Opt
1070
     0
1070
     1
1070
     1
1070
     1
1070
     0
1070
     0
1070
     0
1070
     1
1070
     1
1040
0.0001
1040
0.0001
1002
}
  0
INSERT
  5
A682F
  8
ASHADE
 62
     4
  2
AVE_RENDER
 10
543.400491
 20
209.836093
 30
0.0
1001
AVE_RENDER
1002
{
1070
     0
1000
Quick Opt
1070
     0
1070
     1
1070
     1
1070
     1
1070
     1
1070
     0
1070
     1
1002
}
  0
INSERT
  5
A6830
  8
05
  2
NT_1
 10
642.109832
 20
357.676744
 30
0.0
 41
32.617
 42
-6.863009
 43
32.617
  0
INSERT
  5
A6AAF
  8
05
  2
ACAD
 10
543.400491
 20
209.836093
 30
0.0
  0
INSERT
  5
A6BA6
  8
ASHADE
 62
     1
  2
AVE_RENDER
 10
442.437802
 20
192.150661
 30
0.0
1001
AVE_RENDER
1002
{
1070
     2
1000
Pref
1070
    40
1070
    20
1070
     1
1070
     0
1000

1070
    10
1070
     0
1070
    30
1040
1.0
1070
     1
1040
0.3
1040
0.7
1040
0.0
1040
10.0
1010
-1.0
1020
-1.0
1030
-1.0
1040
0.3
1070
    49
1002
}
  0
INSERT
  5
A6BA7
  8
ASHADE
 62
     3
  2
AVE_RENDER
 10
442.437802
 20
192.150661
 30
0.0
1001
AVE_RENDER
1002
{
1070
     0
1000
Full Opt
1070
     0
1070
     1
1070
     1
1070
     1
1070
     0
1070
     0
1070
     0
1070
     1
1070
     1
1040
0.0001
1040
0.0001
1002
}
  0
INSERT
  5
A6BA8
  8
ASHADE
 62
     4
  2
AVE_RENDER
 10
442.437802
 20
192.150661
 30
0.0
1001
AVE_RENDER
1002
{
1070
     0
1000
Quick Opt
1070
     0
1070
     1
1070
     1
1070
     1
1070
     1
1070
     0
1070
     1
1002
}
  0
INSERT
  5
A6BAC
  8
05
  2
NT_1
 10
541.147144
 20
339.991313
 30
0.0
 41
32.617
 42
-6.863009
 43
32.617
  0
INSERT
  5
AA030
  8
05
  2
ACAD
 10
442.437802
 20
192.150661
 30
0.0
  0
INSERT
  5
B323C
  8
ASHADE
 62
     1
  2
AVE_RENDER
 10
739.437802
 20
192.150661
 30
0.0
1001
AVE_RENDER
1002
{
1070
     2
1000
Pref
1070
    40
1070
    20
1070
     1
1070
     0
1000

1070
    10
1070
     0
1070
    30
1040
1.0
1070
     1
1040
0.3
1040
0.7
1040
0.0
1040
10.0
1010
-1.0
1020
-1.0
1030
-1.0
1040
0.3
1070
    49
1002
}
  0
INSERT
  5
B323D
  8
ASHADE
 62
     3
  2
AVE_RENDER
 10
739.437802
 20
192.150661
 30
0.0
1001
AVE_RENDER
1002
{
1070
     0
1000
Full Opt
1070
     0
1070
     1
1070
     1
1070
     1
1070
     0
1070
     0
1070
     0
1070
     1
1070
     1
1040
0.0001
1040
0.0001
1002
}
  0
INSERT
  5
B323E
  8
ASHADE
 62
     4
  2
AVE_RENDER
 10
739.437802
 20
192.150661
 30
0.0
1001
AVE_RENDER
1002
{
1070
     0
1000
Quick Opt
1070
     0
1070
     1
1070
     1
1070
     1
1070
     1
1070
     0
1070
     1
1002
}
  0
INSERT
  5
B323F
  8
05
  2
NT_1
 10
838.147144
 20
339.991313
 30
0.0
 41
32.617
 42
-6.863009
 43
32.617
  0
INSERT
  5
B3525
  8
05
  2
ACAD
 10
739.437802
 20
192.150661
 30
0.0
  0
INSERT
  5
B35C3
  8
ASHADE
 62
     1
  2
AVE_RENDER
 10
739.437802
 20
192.150661
 30
0.0
1001
AVE_RENDER
1002
{
1070
     2
1000
Pref
1070
    40
1070
    20
1070
     1
1070
     0
1000

1070
    10
1070
     0
1070
    30
1040
1.0
1070
     1
1040
0.3
1040
0.7
1040
0.0
1040
10.0
1010
-1.0
1020
-1.0
1030
-1.0
1040
0.3
1070
    49
1002
}
  0
INSERT
  5
B35C4
  8
ASHADE
 62
     3
  2
AVE_RENDER
 10
739.437802
 20
192.150661
 30
0.0
1001
AVE_RENDER
1002
{
1070
     0
1000
Full Opt
1070
     0
1070
     1
1070
     1
1070
     1
1070
     0
1070
     0
1070
     0
1070
     1
1070
     1
1040
0.0001
1040
0.0001
1002
}
  0
INSERT
  5
B35C5
  8
ASHADE
 62
     4
  2
AVE_RENDER
 10
739.437802
 20
192.150661
 30
0.0
1001
AVE_RENDER
1002
{
1070
     0
1000
Quick Opt
1070
     0
1070
     1
1070
     1
1070
     1
1070
     1
1070
     0
1070
     1
1002
}
  0
INSERT
  5
B35C6
  8
05
  2
NT_1
 10
838.147144
 20
339.991313
 30
0.0
 41
32.617
 42
-6.863009
 43
32.617
  0
INSERT
  5
B38AC
  8
05
  2
ACAD
 10
739.437802
 20
192.150661
 30
0.0
  0
INSERT
  5
B39E5
  8
ASHADE
 62
     1
  2
AVE_RENDER
 10
758.541477
 20
190.161988
 30
0.0
1001
AVE_RENDER
1002
{
1070
     2
1000
Pref
1070
    40
1070
    20
1070
     1
1070
     0
1000

1070
    10
1070
     0
1070
    30
1040
1.0
1070
     1
1040
0.3
1040
0.7
1040
0.0
1040
10.0
1010
-1.0
1020
-1.0
1030
-1.0
1040
0.3
1070
    49
1002
}
  0
INSERT
  5
B39E6
  8
ASHADE
 62
     3
  2
AVE_RENDER
 10
758.541477
 20
190.161988
 30
0.0
1001
AVE_RENDER
1002
{
1070
     0
1000
Full Opt
1070
     0
1070
     1
1070
     1
1070
     1
1070
     0
1070
     0
1070
     0
1070
     1
1070
     1
1040
0.0001
1040
0.0001
1002
}
  0
INSERT
  5
B39E7
  8
ASHADE
 62
     4
  2
AVE_RENDER
 10
758.541477
 20
190.161988
 30
0.0
1001
AVE_RENDER
1002
{
1070
     0
1000
Quick Opt
1070
     0
1070
     1
1070
     1
1070
     1
1070
     1
1070
     0
1070
     1
1002
}
  0
INSERT
  5
B39EB
  8
05
  2
NT_1
 10
857.250818
 20
338.002639
 30
0.0
 41
32.617
 42
-6.863009
 43
32.617
  0
INSERT
  5
B6E6F
  8
05
  2
ACAD
 10
758.541477
 20
190.161988
 30
0.0
  0
POLYLINE
  5
C893B
  8
RAHMEN
 66
     1
 10
0.0
 20
0.0
 30
0.0
 70
     1
  0
VERTEX
  5
CD1E8
  8
RAHMEN
 10
205.0
 20
5.0
 30
0.0
  0
VERTEX
  5
CD1E9
  8
RAHMEN
 10
205.0
 20
292.0
 30
0.0
  0
VERTEX
  5
CD1EA
  8
RAHMEN
 10
5.0
 20
292.0
 30
0.0
  0
VERTEX
  5
CD1EB
  8
RAHMEN
 10
5.0
 20
5.0
 30
0.0
  0
SEQEND
  5
CD1EC
  8
RAHMEN
  0
POLYLINE
  5
C893C
  8
RAHMEN
 62
     7
 66
     1
 10
0.0
 20
0.0
 30
0.0
  0
VERTEX
  5
CD1ED
  8
RAHMEN
 62
     7
 10
210.0
 20
0.0
 30
0.0
  0
VERTEX
  5
CD1EE
  8
RAHMEN
 62
     7
 10
210.0
 20
297.0
 30
0.0
  0
VERTEX
  5
CD1EF
  8
RAHMEN
 62
     7
 10
0.0
 20
297.0
 30
0.0
  0
VERTEX
  5
CD1F0
  8
RAHMEN
 62
     7
 10
0.0
 20
0.0
 30
0.0
  0
VERTEX
  5
CD1F1
  8
RAHMEN
 62
     7
 10
210.0
 20
0.0
 30
0.0
  0
SEQEND
  5
CD1F2
  8
RAHMEN
 62
     7
  0
LINE
  5
C929F
  8
05
 10
34.343691
 20
197.623082
 30
0.0
 11
108.983737
 21
197.623082
 31
0.0
  0
CIRCLE
  5
C92A0
  8
05
 10
101.983737
 20
191.46366
 30
0.0
 40
2.896271
  0
CIRCLE
  5
C92A1
  8
05
 10
101.983737
 20
181.46366
 30
0.0
 40
2.896271
  0
LINE
  5
C92A2
  8
BEM1
 10
27.483737
 20
219.57214
 30
0.0
 11
111.483737
 21
219.57214
 31
0.0
  0
LINE
  5
C92A3
  8
05
 10
29.983737
 20
204.908653
 30
0.0
 11
108.983737
 21
204.908653
 31
0.0
  0
LINE
  5
C92A4
  8
05
 10
29.983737
 20
168.337511
 30
0.0
 11
108.983737
 21
168.337511
 31
0.0
  0
LINE
  5
C92A5
  8
05
 10
29.983737
 20
174.658653
 30
0.0
 11
108.983737
 21
174.658653
 31
0.0
  0
ARC
  5
C92A6
  8
025
 10
30.483737
 20
201.265867
 30
0.0
 40
3.378773
 50
182.883978
 51
207.389917
  0
POLYLINE
  5
C92A7
  8
05
 66
     1
 10
0.0
 20
0.0
 30
0.0
 70
     1
  0
VERTEX
  5
CD1F3
  8
05
 10
28.233737
 20
205.873082
 30
0.0
  0
VERTEX
  5
CD1F4
  8
05
 10
29.983737
 20
205.873082
 30
0.0
  0
VERTEX
  5
CD1F5
  8
05
 10
29.983737
 20
167.373082
 30
0.0
  0
VERTEX
  5
CD1F6
  8
05
 10
28.233737
 20
167.373082
 30
0.0
 42
-0.414214
  0
VERTEX
  5
CD1F7
  8
05
 10
27.483737
 20
168.123082
 30
0.0
  0
VERTEX
  5
CD1F8
  8
05
 10
27.483737
 20
205.123082
 30
0.0
 42
-0.414214
  0
SEQEND
  5
CD1F9
  8
05
  0
LINE
  5
C92A8
  8
05
 10
32.503209
 20
197.623082
 30
0.0
 11
33.507108
 21
197.623082
 31
0.0
  0
ARC
  5
C92A9
  8
025
 10
30.483737
 20
171.980297
 30
0.0
 40
3.378773
 50
182.883978
 51
207.389917
  0
ARC
  5
C92AA
  8
025
 10
30.483737
 20
171.980297
 30
0.0
 40
3.378773
 50
152.610083
 51
177.116022
  0
POLYLINE
  5
C92AB
  8
025
 66
     1
 10
0.0
 20
0.0
 30
0.0
  0
VERTEX
  5
CD1FA
  8
025
 10
27.109244
 20
171.810298
 30
0.0
  0
VERTEX
  5
CD1FB
  8
025
 10
27.365342
 20
171.810298
 30
0.0
  0
VERTEX
  5
CD1FC
  8
025
 10
27.365342
 20
172.150295
 30
0.0
  0
VERTEX
  5
CD1FD
  8
025
 10
27.109244
 20
172.150295
 30
0.0
  0
SEQEND
  5
CD1FE
  8
025
  0
LINE
  5
C92AC
  8
05
 10
29.983737
 20
197.623082
 30
0.0
 11
31.917601
 21
197.623082
 31
0.0
  0
LINE
  5
C92AD
  8
BEM1
 10
27.483737
 20
220.204712
 30
0.0
 11
27.483737
 21
206.681641
 31
0.0
  0
SOLID
  5
C92AE
  8
BEM1
 10
30.815468
 20
220.127429
 30
0.0
 11
30.815468
 21
219.016852
 31
0.0
 12
27.483737
 22
219.57214
 32
0.0
 13
27.483737
 23
219.57214
 33
0.0
  0
POLYLINE
  5
C92AF
  8
025
 66
     1
 10
0.0
 20
0.0
 30
0.0
  0
VERTEX
  5
CD1FF
  8
025
 10
27.109244
 20
201.435866
 30
0.0
  0
VERTEX
  5
CD200
  8
025
 10
27.365342
 20
201.435866
 30
0.0
  0
VERTEX
  5
CD201
  8
025
 10
27.365342
 20
201.095869
 30
0.0
  0
VERTEX
  5
CD202
  8
025
 10
27.109244
 20
201.095869
 30
0.0
  0
SEQEND
  5
CD203
  8
025
  0
ARC
  5
C92B0
  8
025
 10
30.483737
 20
201.265867
 30
0.0
 40
3.378773
 50
152.610083
 51
177.116022
  0
CIRCLE
  5
C92B1
  8
05
 10
47.983737
 20
191.46366
 30
0.0
 40
2.896271
  0
CIRCLE
  5
C92B2
  8
035
 10
47.983737
 20
191.46366
 30
0.0
 40
1.853613
  0
CIRCLE
  5
C92B3
  8
05
 10
47.983737
 20
181.46366
 30
0.0
 40
2.896271
  0
CIRCLE
  5
C92B4
  8
035
 10
47.983737
 20
181.46366
 30
0.0
 40
1.853613
  0
CIRCLE
  5
C92B5
  8
035
 10
56.983737
 20
191.46366
 30
0.0
 40
1.853613
  0
CIRCLE
  5
C92B6
  8
05
 10
56.983737
 20
191.46366
 30
0.0
 40
2.896271
  0
CIRCLE
  5
C92B7
  8
035
 10
56.983737
 20
181.46366
 30
0.0
 40
1.853613
  0
CIRCLE
  5
C92B8
  8
05
 10
56.983737
 20
181.46366
 30
0.0
 40
2.896271
  0
CIRCLE
  5
C92B9
  8
05
 10
65.983737
 20
191.46366
 30
0.0
 40
2.896271
  0
CIRCLE
  5
C92BA
  8
035
 10
65.983737
 20
191.46366
 30
0.0
 40
1.853613
  0
CIRCLE
  5
C92BB
  8
05
 10
65.983737
 20
181.46366
 30
0.0
 40
2.896271
  0
CIRCLE
  5
C92BC
  8
035
 10
65.983737
 20
181.46366
 30
0.0
 40
1.853613
  0
CIRCLE
  5
C92BD
  8
035
 10
38.983737
 20
191.46366
 30
0.0
 40
1.853613
  0
CIRCLE
  5
C92BE
  8
05
 10
38.983737
 20
191.46366
 30
0.0
 40
2.896271
  0
CIRCLE
  5
C92BF
  8
05
 10
38.983737
 20
181.46366
 30
0.0
 40
2.896271
  0
CIRCLE
  5
C92C0
  8
035
 10
38.983737
 20
181.46366
 30
0.0
 40
1.853613
  0
CIRCLE
  5
C92C1
  8
035
 10
101.983737
 20
191.46366
 30
0.0
 40
1.853613
  0
CIRCLE
  5
C92C2
  8
05
 10
83.983737
 20
191.46366
 30
0.0
 40
2.896271
  0
CIRCLE
  5
C92C3
  8
035
 10
83.983737
 20
191.46366
 30
0.0
 40
1.853613
  0
CIRCLE
  5
C92C4
  8
05
 10
74.983737
 20
191.46366
 30
0.0
 40
2.896271
  0
CIRCLE
  5
C92C5
  8
035
 10
74.983737
 20
191.46366
 30
0.0
 40
1.853613
  0
CIRCLE
  5
C92C6
  8
05
 10
92.983737
 20
191.46366
 30
0.0
 40
2.896271
  0
CIRCLE
  5
C92C7
  8
035
 10
92.983737
 20
191.46366
 30
0.0
 40
1.853613
  0
CIRCLE
  5
C92C8
  8
05
 10
74.983737
 20
181.46366
 30
0.0
 40
2.896271
  0
CIRCLE
  5
C92C9
  8
035
 10
74.983737
 20
181.46366
 30
0.0
 40
1.853613
  0
CIRCLE
  5
C92CA
  8
05
 10
83.983737
 20
181.46366
 30
0.0
 40
2.896271
  0
CIRCLE
  5
C92CB
  8
035
 10
83.983737
 20
181.46366
 30
0.0
 40
1.853613
  0
CIRCLE
  5
C92CC
  8
05
 10
92.983737
 20
181.46366
 30
0.0
 40
2.896271
  0
CIRCLE
  5
C92CD
  8
035
 10
92.983737
 20
181.46366
 30
0.0
 40
1.853613
  0
CIRCLE
  5
C92CE
  8
035
 10
101.983737
 20
181.46366
 30
0.0
 40
1.853613
  0
TEXT
  5
C92CF
  8
BEM1
 62
     3
 10
59.417151
 20
221.127217
 30
0.0
 40
3.5
  1
168.0
 41
0.75
 51
15.0
 72
     1
 11
64.010901
 21
222.877217
 31
0.0
 73
     2
  0
ARC
  5
C92D0
  8
025
 10
108.483737
 20
201.265867
 30
0.0
 40
3.378773
 50
332.610083
 51
357.116022
  0
LINE
  5
C92D1
  8
BEM1
 10
187.227315
 20
205.873082
 30
0.0
 11
187.227315
 21
167.373082
 31
0.0
  0
POLYLINE
  5
C92D2
  8
05
 66
     1
 10
0.0
 20
0.0
 30
0.0
 70
     1
  0
VERTEX
  5
CD204
  8
05
 10
108.983737
 20
205.873082
 30
0.0
  0
VERTEX
  5
CD205
  8
05
 10
110.733737
 20
205.873082
 30
0.0
 42
-0.414214
  0
VERTEX
  5
CD206
  8
05
 10
111.483737
 20
205.123082
 30
0.0
  0
VERTEX
  5
CD207
  8
05
 10
111.483737
 20
168.123082
 30
0.0
 42
-0.414214
  0
VERTEX
  5
CD208
  8
05
 10
110.733737
 20
167.373082
 30
0.0
  0
VERTEX
  5
CD209
  8
05
 10
108.983737
 20
167.373082
 30
0.0
  0
SEQEND
  5
CD20A
  8
05
  0
TEXT
  5
C92D3
  8
BEM1
 62
     3
 10
185.756005
 20
176.640015
 30
0.0
 40
3.5
  1
77.0
 50
90.0
 41
0.8
 51
15.0
 72
     1
 11
184.006005
 21
180.606682
 31
0.0
 73
     2
  0
ARC
  5
C92D4
  8
025
 10
108.483737
 20
171.980297
 30
0.0
 40
3.378773
 50
332.610083
 51
357.116022
  0
ARC
  5
C92D5
  8
025
 10
108.483737
 20
171.980297
 30
0.0
 40
3.378773
 50
2.883978
 51
27.389917
  0
POLYLINE
  5
C92D6
  8
025
 66
     1
 10
0.0
 20
0.0
 30
0.0
  0
VERTEX
  5
CD20B
  8
025
 10
111.85823
 20
171.810298
 30
0.0
  0
VERTEX
  5
CD20C
  8
025
 10
111.602132
 20
171.810298
 30
0.0
  0
VERTEX
  5
CD20D
  8
025
 10
111.602132
 20
172.150295
 30
0.0
  0
VERTEX
  5
CD20E
  8
025
 10
111.85823
 20
172.150295
 30
0.0
  0
SEQEND
  5
CD20F
  8
025
  0
SOLID
  5
C92D7
  8
BEM1
 10
186.672026
 20
170.704813
 30
0.0
 11
187.782603
 21
170.704813
 31
0.0
 12
187.227315
 22
167.373082
 32
0.0
 13
187.227315
 23
167.373082
 33
0.0
  0
LINE
  5
C92D8
  8
BEM1
 10
167.696575
 20
167.373082
 30
0.0
 11
187.783735
 21
167.373082
 31
0.0
  0
SOLID
  5
C92D9
  8
BEM1
 10
186.672026
 20
202.541351
 30
0.0
 11
187.782603
 21
202.541351
 31
0.0
 12
187.227315
 22
205.873082
 32
0.0
 13
187.227315
 23
205.873082
 33
0.0
  0
LINE
  5
C92DA
  8
BEM1
 10
111.483737
 20
220.162842
 30
0.0
 11
111.483737
 21
206.811966
 31
0.0
  0
LINE
  5
C92DB
  8
BEM1
 10
167.696571
 20
205.873082
 30
0.0
 11
170.212203
 21
205.873082
 31
0.0
  0
SOLID
  5
C92DC
  8
BEM1
 10
108.152006
 20
220.127429
 30
0.0
 11
108.152006
 21
219.016852
 31
0.0
 12
111.483737
 22
219.57214
 32
0.0
 13
111.483737
 23
219.57214
 33
0.0
  0
POLYLINE
  5
C92DD
  8
025
 66
     1
 10
0.0
 20
0.0
 30
0.0
  0
VERTEX
  5
CD210
  8
025
 10
111.85823
 20
201.435866
 30
0.0
  0
VERTEX
  5
CD211
  8
025
 10
111.602132
 20
201.435866
 30
0.0
  0
VERTEX
  5
CD212
  8
025
 10
111.602132
 20
201.095869
 30
0.0
  0
VERTEX
  5
CD213
  8
025
 10
111.85823
 20
201.095869
 30
0.0
  0
SEQEND
  5
CD214
  8
025
  0
ARC
  5
C92DE
  8
025
 10
108.483737
 20
201.265867
 30
0.0
 40
3.378773
 50
2.883978
 51
27.389917
  0
LINE
  5
C92E6
  8
05
 10
141.828471
 20
205.873082
 30
0.0
 11
163.328471
 21
205.873082
 31
0.0
  0
LINE
  5
C92E7
  8
05
 10
141.828471
 20
167.373082
 30
0.0
 11
163.328471
 21
167.373082
 31
0.0
  0
LINE
  5
C92E8
  8
05
 10
133.328471
 20
197.373082
 30
0.0
 11
133.328471
 21
175.873082
 31
0.0
  0
LINE
  5
C92E9
  8
05
 10
171.828471
 20
197.373082
 30
0.0
 11
171.828471
 21
175.873082
 31
0.0
  0
ARC
  5
C92F8
  8
05
 10
141.828471
 20
197.373082
 30
0.0
 40
8.5
 50
90.0
 51
180.0
  0
ARC
  5
C92F9
  8
05
 10
163.328471
 20
197.373082
 30
0.0
 40
8.5
 50
0.0
 51
90.0
  0
ARC
  5
C92FA
  8
05
 10
163.328471
 20
175.873082
 30
0.0
 40
8.5
 50
270.0
 51
0.0
  0
ARC
  5
C92FB
  8
05
 10
141.828471
 20
175.873082
 30
0.0
 40
8.5
 50
180.0
 51
270.0
  0
LINE
  5
C92FC
  8
MITTE
 10
152.578471
 20
206.739332
 30
0.0
 11
152.578471
 21
166.506832
 31
0.0
  0
LINE
  5
C92FD
  8
MITTE
 10
132.462221
 20
186.623082
 30
0.0
 11
172.694721
 21
186.623082
 31
0.0
  0
CIRCLE
  5
C9303
  8
05
 10
139.328471
 20
199.873082
 30
0.0
 40
2.0
  0
ARC
  5
C9304
  8
025
 10
139.328471
 20
199.873082
 30
0.0
 40
1.5
 50
219.847922
 51
230.152078
  0
LINE
  5
C9305
  8
025
 10
138.17685
 20
200.83421
 30
0.0
 11
138.996556
 21
200.014503
 31
0.0
  0
LINE
  5
C9306
  8
025
 10
138.367343
 20
201.024704
 30
0.0
 11
139.18705
 21
200.204997
 31
0.0
  0
LINE
  5
C9307
  8
025
 10
138.367343
 20
198.72146
 30
0.0
 11
139.18705
 21
199.541167
 31
0.0
  0
LINE
  5
C9308
  8
025
 10
138.17685
 20
198.911954
 30
0.0
 11
138.996556
 21
199.731661
 31
0.0
  0
ARC
  5
C9309
  8
025
 10
139.328471
 20
199.873082
 30
0.0
 40
1.5
 50
129.847922
 51
140.152078
  0
ARC
  5
C930A
  8
025
 10
139.328471
 20
199.873082
 30
0.0
 40
1.5
 50
39.847922
 51
50.152078
  0
ARC
  5
C930B
  8
025
 10
139.328471
 20
199.873082
 30
0.0
 40
1.5
 50
309.847922
 51
320.152078
  0
LINE
  5
C930D
  8
025
 10
139.660387
 20
200.014503
 30
0.0
 11
140.480093
 21
200.83421
 31
0.0
  0
LINE
  5
C930E
  8
025
 10
139.469893
 20
200.204997
 30
0.0
 11
140.2896
 21
201.024704
 31
0.0
  0
LINE
  5
C930F
  8
025
 10
139.469893
 20
199.541167
 30
0.0
 11
140.2896
 21
198.72146
 31
0.0
  0
LINE
  5
C9310
  8
025
 10
139.660387
 20
199.731661
 30
0.0
 11
140.480093
 21
198.911954
 31
0.0
  0
ARC
  5
C9311
  8
025
 10
138.855135
 20
199.873082
 30
0.0
 40
0.2
 50
315.0
 51
45.0
  0
ARC
  5
C9312
  8
025
 10
139.328471
 20
200.346418
 30
0.0
 40
0.2
 50
225.0
 51
315.0
  0
ARC
  5
C9313
  8
025
 10
139.801808
 20
199.873082
 30
0.0
 40
0.2
 50
135.0
 51
225.0
  0
ARC
  5
C9314
  8
025
 10
139.328471
 20
199.399746
 30
0.0
 40
0.2
 50
45.0
 51
135.0
  0
LINE
  5
C9315
  8
MITTE
 10
136.575721
 20
199.873082
 30
0.0
 11
142.081221
 21
199.873082
 31
0.0
  0
LINE
  5
C9316
  8
MITTE
 10
139.328471
 20
202.625832
 30
0.0
 11
139.328471
 21
197.120332
 31
0.0
  0
ARC
  5
C9319
  8
025
 10
165.828471
 20
199.873082
 30
0.0
 40
1.5
 50
219.847922
 51
230.152078
  0
ARC
  5
C931A
  8
025
 10
165.828471
 20
199.873082
 30
0.0
 40
1.5
 50
129.847922
 51
140.152078
  0
ARC
  5
C931B
  8
025
 10
165.828471
 20
199.873082
 30
0.0
 40
1.5
 50
39.847922
 51
50.152078
  0
ARC
  5
C931C
  8
025
 10
165.828471
 20
199.873082
 30
0.0
 40
1.5
 50
309.847922
 51
320.152078
  0
LINE
  5
C931D
  8
025
 10
164.67685
 20
200.83421
 30
0.0
 11
165.496556
 21
200.014503
 31
0.0
  0
LINE
  5
C931E
  8
025
 10
164.67685
 20
198.911954
 30
0.0
 11
165.496556
 21
199.731661
 31
0.0
  0
ARC
  5
C931F
  8
025
 10
165.355135
 20
199.873082
 30
0.0
 40
0.2
 50
315.0
 51
45.0
  0
LINE
  5
C9320
  8
025
 10
164.867343
 20
201.024704
 30
0.0
 11
165.68705
 21
200.204997
 31
0.0
  0
LINE
  5
C9321
  8
025
 10
165.969893
 20
200.204997
 30
0.0
 11
166.7896
 21
201.024704
 31
0.0
  0
ARC
  5
C9322
  8
025
 10
165.828471
 20
200.346418
 30
0.0
 40
0.2
 50
225.0
 51
315.0
  0
LINE
  5
C9323
  8
025
 10
166.160387
 20
200.014503
 30
0.0
 11
166.980093
 21
200.83421
 31
0.0
  0
LINE
  5
C9324
  8
025
 10
166.160387
 20
199.731661
 30
0.0
 11
166.980093
 21
198.911954
 31
0.0
  0
ARC
  5
C9325
  8
025
 10
166.301808
 20
199.873082
 30
0.0
 40
0.2
 50
135.0
 51
225.0
  0
LINE
  5
C9326
  8
025
 10
165.969893
 20
199.541167
 30
0.0
 11
166.7896
 21
198.72146
 31
0.0
  0
LINE
  5
C9327
  8
025
 10
164.867343
 20
198.72146
 30
0.0
 11
165.68705
 21
199.541167
 31
0.0
  0
ARC
  5
C9328
  8
025
 10
165.828471
 20
199.399746
 30
0.0
 40
0.2
 50
45.0
 51
135.0
  0
CIRCLE
  5
C9329
  8
05
 10
165.828471
 20
199.873082
 30
0.0
 40
2.0
  0
ARC
  5
C932C
  8
025
 10
139.328471
 20
173.373082
 30
0.0
 40
1.5
 50
219.847922
 51
230.152078
  0
ARC
  5
C932D
  8
025
 10
139.328471
 20
173.373082
 30
0.0
 40
1.5
 50
129.847922
 51
140.152078
  0
ARC
  5
C932E
  8
025
 10
139.328471
 20
173.373082
 30
0.0
 40
1.5
 50
39.847922
 51
50.152078
  0
ARC
  5
C932F
  8
025
 10
139.328471
 20
173.373082
 30
0.0
 40
1.5
 50
309.847922
 51
320.152078
  0
LINE
  5
C9330
  8
025
 10
138.17685
 20
174.33421
 30
0.0
 11
138.996556
 21
173.514503
 31
0.0
  0
LINE
  5
C9331
  8
025
 10
138.17685
 20
172.411954
 30
0.0
 11
138.996556
 21
173.231661
 31
0.0
  0
ARC
  5
C9332
  8
025
 10
138.855135
 20
173.373082
 30
0.0
 40
0.2
 50
315.0
 51
45.0
  0
LINE
  5
C9333
  8
025
 10
138.367343
 20
174.524704
 30
0.0
 11
139.18705
 21
173.704997
 31
0.0
  0
LINE
  5
C9334
  8
025
 10
139.469893
 20
173.704997
 30
0.0
 11
140.2896
 21
174.524704
 31
0.0
  0
ARC
  5
C9335
  8
025
 10
139.328471
 20
173.846418
 30
0.0
 40
0.2
 50
225.0
 51
315.0
  0
LINE
  5
C9336
  8
025
 10
139.660387
 20
173.514503
 30
0.0
 11
140.480093
 21
174.33421
 31
0.0
  0
LINE
  5
C9337
  8
025
 10
139.660387
 20
173.231661
 30
0.0
 11
140.480093
 21
172.411954
 31
0.0
  0
ARC
  5
C9338
  8
025
 10
139.801808
 20
173.373082
 30
0.0
 40
0.2
 50
135.0
 51
225.0
  0
LINE
  5
C9339
  8
025
 10
139.469893
 20
173.041167
 30
0.0
 11
140.2896
 21
172.22146
 31
0.0
  0
LINE
  5
C933A
  8
025
 10
138.367343
 20
172.22146
 30
0.0
 11
139.18705
 21
173.041167
 31
0.0
  0
ARC
  5
C933B
  8
025
 10
139.328471
 20
172.899746
 30
0.0
 40
0.2
 50
45.0
 51
135.0
  0
CIRCLE
  5
C933C
  8
05
 10
139.328471
 20
173.373082
 30
0.0
 40
2.0
  0
CIRCLE
  5
C933D
  8
05
 10
165.828471
 20
172.899746
 30
0.0
 40
2.0
  0
ARC
  5
C933E
  8
025
 10
165.828471
 20
172.426409
 30
0.0
 40
0.2
 50
45.0
 51
135.0
  0
LINE
  5
C933F
  8
025
 10
164.867343
 20
171.748124
 30
0.0
 11
165.68705
 21
172.567831
 31
0.0
  0
LINE
  5
C9340
  8
025
 10
165.969893
 20
172.567831
 30
0.0
 11
166.7896
 21
171.748124
 31
0.0
  0
ARC
  5
C9341
  8
025
 10
166.301808
 20
172.899746
 30
0.0
 40
0.2
 50
135.0
 51
225.0
  0
LINE
  5
C9342
  8
025
 10
166.160387
 20
172.758324
 30
0.0
 11
166.980093
 21
171.938618
 31
0.0
  0
LINE
  5
C9343
  8
025
 10
166.160387
 20
173.041167
 30
0.0
 11
166.980093
 21
173.860874
 31
0.0
  0
ARC
  5
C9344
  8
025
 10
165.828471
 20
173.373082
 30
0.0
 40
0.2
 50
225.0
 51
315.0
  0
LINE
  5
C9345
  8
025
 10
165.969893
 20
173.231661
 30
0.0
 11
166.7896
 21
174.051367
 31
0.0
  0
LINE
  5
C9346
  8
025
 10
164.867343
 20
174.051367
 30
0.0
 11
165.68705
 21
173.231661
 31
0.0
  0
ARC
  5
C9347
  8
025
 10
165.355135
 20
172.899746
 30
0.0
 40
0.2
 50
315.0
 51
45.0
  0
LINE
  5
C9348
  8
025
 10
164.67685
 20
171.938618
 30
0.0
 11
165.496556
 21
172.758324
 31
0.0
  0
LINE
  5
C9349
  8
025
 10
164.67685
 20
173.860874
 30
0.0
 11
165.496556
 21
173.041167
 31
0.0
  0
ARC
  5
C934A
  8
025
 10
165.828471
 20
172.899746
 30
0.0
 40
1.5
 50
309.847922
 51
320.152078
  0
ARC
  5
C934B
  8
025
 10
165.828471
 20
172.899746
 30
0.0
 40
1.5
 50
39.847922
 51
50.152078
  0
ARC
  5
C934C
  8
025
 10
165.828471
 20
172.899746
 30
0.0
 40
1.5
 50
129.847922
 51
140.152078
  0
ARC
  5
C934D
  8
025
 10
165.828471
 20
172.899746
 30
0.0
 40
1.5
 50
219.847922
 51
230.152078
  0
LINE
  5
C9350
  8
MITTE
 10
165.828471
 20
202.625832
 30
0.0
 11
165.828471
 21
197.120332
 31
0.0
  0
LINE
  5
C9351
  8
MITTE
 10
163.075721
 20
199.873082
 30
0.0
 11
168.581221
 21
199.873082
 31
0.0
  0
LINE
  5
C9352
  8
MITTE
 10
139.328471
 20
176.125832
 30
0.0
 11
139.328471
 21
170.620332
 31
0.0
  0
LINE
  5
C9353
  8
MITTE
 10
136.575721
 20
173.373082
 30
0.0
 11
142.081221
 21
173.373082
 31
0.0
  0
LINE
  5
C9354
  8
MITTE
 10
163.075721
 20
172.899746
 30
0.0
 11
168.581221
 21
172.899746
 31
0.0
  0
LINE
  5
C9355
  8
MITTE
 10
165.828471
 20
175.652496
 30
0.0
 11
165.828471
 21
170.146996
 31
0.0
  0
LINE
  5
C9357
  8
025
 10
143.328471
 20
196.873082
 30
0.0
 11
158.101249
 21
196.873082
 31
0.0
  0
LINE
  5
C9358
  8
025
 10
143.328471
 20
176.373082
 30
0.0
 11
161.828471
 21
176.373082
 31
0.0
  0
LINE
  5
C9359
  8
025
 10
140.828471
 20
194.373082
 30
0.0
 11
140.828471
 21
182.30219
 31
0.0
  0
LINE
  5
C935A
  8
025
 10
164.328471
 20
194.373082
 30
0.0
 11
164.328471
 21
178.873082
 31
0.0
  0
ARC
  5
C935B
  8
025
 10
143.328471
 20
194.373082
 30
0.0
 40
2.5
 50
90.0
 51
180.0
  0
ARC
  5
C935C
  8
025
 10
161.828471
 20
194.373082
 30
0.0
 40
2.5
 50
0.0
 51
90.0
  0
ARC
  5
C935D
  8
025
 10
161.828471
 20
178.873082
 30
0.0
 40
2.5
 50
270.0
 51
0.0
  0
ARC
  5
C935E
  8
025
 10
143.328471
 20
178.873082
 30
0.0
 40
2.5
 50
180.0
 51
270.0
  0
LINE
  5
C9360
  8
BEM1
 10
133.328471
 20
219.57214
 30
0.0
 11
171.828471
 21
219.57214
 31
0.0
  0
LINE
  5
C9361
  8
BEM1
 10
171.828471
 20
220.162842
 30
0.0
 11
171.828471
 21
201.269943
 31
0.0
  0
SOLID
  5
C9362
  8
BEM1
 10
168.496741
 20
220.127429
 30
0.0
 11
168.496741
 21
219.016852
 31
0.0
 12
171.828471
 22
219.57214
 32
0.0
 13
171.828471
 23
219.57214
 33
0.0
  0
SOLID
  5
C9363
  8
BEM1
 10
136.660202
 20
220.127429
 30
0.0
 11
136.660202
 21
219.016852
 31
0.0
 12
133.328471
 22
219.57214
 32
0.0
 13
133.328471
 23
219.57214
 33
0.0
  0
LINE
  5
C9364
  8
BEM1
 10
133.328471
 20
220.204712
 30
0.0
 11
133.328471
 21
201.139618
 31
0.0
  0
TEXT
  5
C9365
  8
BEM1
 62
     3
 10
143.283379
 20
221.127217
 30
0.0
 40
3.5
  1
77.0
 41
0.75
 51
15.0
 72
     1
 11
147.002129
 21
222.877217
 31
0.0
 73
     2
  0
LINE
  5
C9366
  8
BEM1
 10
172.984886
 20
205.873082
 30
0.0
 11
187.716748
 21
205.873082
 31
0.0
  0
LINE
  5
CD01A
  8
025
 10
161.815779
 20
196.873082
 30
0.0
 11
161.828471
 21
196.873082
 31
0.0
  0
LINE
  5
CD01B
  8
025
 10
159.50181
 20
196.873082
 30
0.0
 11
160.841476
 21
196.873082
 31
0.0
  0
LINE
  5
CD01C
  8
025
 10
140.828471
 20
180.050083
 30
0.0
 11
140.828471
 21
178.873082
 31
0.0
  0
LINE
  5
CD01D
  8
025
 10
140.828471
 20
181.571777
 30
0.0
 11
140.828471
 21
180.902231
 31
0.0
  0
LINE
  5
CD020
  8
MITTE
 10
26.286366
 20
186.623082
 30
0.0
 11
113.130464
 21
186.623082
 31
0.0
  0
TEXT
  5
CD021
  8
BEM1
 62
     4
 10
71.306178
 20
221.227217
 30
0.0
 40
2.5
  1
[6.62"]
 41
0.75
 51
15.0
 72
     1
 11
75.993678
 21
222.477217
 31
0.0
 73
     2
  0
TEXT
  5
CD022
  8
BEM1
 62
     4
 10
153.221045
 20
221.227217
 30
0.0
 40
2.5
  1
[3.03"]
 41
0.75
 51
15.0
 72
     1
 11
157.752295
 21
222.477217
 31
0.0
 73
     2
  0
TEXT
  5
CD023
  8
BEM1
 62
     4
 10
185.256005
 20
186.980904
 30
0.0
 40
2.5
  1
[3.03"]
 50
90.0
 41
0.8
 51
15.0
 72
     1
 11
184.006005
 21
191.814237
 31
0.0
 73
     2
  0
INSERT
  5
CD139
  8
BEM1
 66
     1
  2
ZKOPF-REAN
 10
205.0
 20
5.0
 30
0.0
  0
ATTRIB
  5
CD13A
  8
0
 62
     4
 10
189.833333
 20
42.0
 30
0.0
 40
2.5
  1
Battlogg
  7
SCRIPTS
 72
     1
 11
196.5
 21
42.0
 31
0.0
  2
NAME
 70
     0
  0
ATTRIB
  5
CD13B
  8
0
 62
     4
 10
175.979167
 20
42.0
 30
0.0
 40
2.5
  1
01.02.01
 41
0.7
 51
15.0
 72
     1
 11
180.5
 21
42.0
 31
0.0
  2
DATE
 70
     0
  0
ATTRIB
  5
CD13C
  8
0
 62
     4
 10
124.5
 20
41.0
 30
0.0
 40
2.5
  1

 41
0.7
 51
15.0
 72
     1
 11
124.5
 21
41.0
 31
0.0
  2
WERKSTOFF
 70
     0
  0
ATTRIB
  5
CD13D
  8
0
 62
     2
 10
99.583333
 20
17.5
 30
0.0
 40
5.0
  1
NYS-SSR8
 41
0.7
 51
15.0
 72
     1
 11
113.0
 21
17.5
 31
0.0
  2
BENENNUNG
 70
     0
  0
ATTRIB
  5
CD13E
  8
0
 62
     3
 10
100.034543
 20
26.082191
 30
0.0
 40
3.5
  1
1/4" Patch BOX
 41
0.7
 51
15.0
 72
     1
 11
115.959543
 21
26.082191
 31
0.0
  2
TEIL
 70
     0
  0
ATTRIB
  5
CD13F
  8
0
 62
     3
 10
169.545614
 20
6.976541
 30
0.0
 40
3.5
  1
3102 ST 22 45
 41
0.7
 51
15.0
 72
     1
 11
184.449781
 21
6.976541
 31
0.0
  2
NUMMER
 70
     0
  0
ATTRIB
  5
CD140
  8
0
 62
     2
 10
141.517328
 20
39.656056
 30
0.0
 40
5.0
  1
1:2
 41
0.7
 51
15.0
 72
     1
 11
144.433995
 21
39.656056
 31
0.0
  2
MASS
 70
     0
  0
ATTRIB
  5
CD141
  8
0
 62
     3
 10
144.519299
 20
33.210451
 30
0.0
 40
3.5
  1

 41
0.7
 51
15.0
 72
     1
 11
144.519299
 21
33.210451
 31
0.0
  2
MASS2
 70
     0
  0
ATTRIB
  5
CD142
  8
0
 62
     4
 10
124.0
 20
34.0
 30
0.0
 40
2.5
  1

 41
0.7
 51
15.0
 72
     1
 11
124.0
 21
34.0
 31
0.0
  2
TEIL
 70
     0
  0
ATTRIB
  5
CD143
  8
0
 62
     3
 10
97.288548
 20
64.004319
 30
0.0
 40
3.5
  1

 41
0.7
 51
15.0
  2
TOL
 70
     0
  0
ATTRIB
  5
CD144
  8
0
 62
     3
 10
97.288548
 20
59.004319
 30
0.0
 40
3.5
  1

 41
0.7
 51
15.0
  2
RADIEN
 70
     0
  0
ATTRIB
  5
CD145
  8
0
 62
     3
 10
97.288548
 20
54.004319
 30
0.0
 40
3.5
  1

 41
0.7
 51
15.0
  2
FACETTE
 70
     0
  0
ATTRIB
  5
CD146
  8
0
 62
     4
 10
7.813733
 20
12.0
 30
0.0
 40
2.5
  1

 41
0.7
 51
15.0
  2
INDEX1
 70
     0
  0
ATTRIB
  5
CD147
  8
0
 62
     4
 10
14.651257
 20
12.0
 30
0.0
 40
2.5
  1

 41
0.7
 51
15.0
  2
A1
 70
     0
  0
ATTRIB
  5
CD148
  8
0
 62
     4
 10
47.651257
 20
12.0
 30
0.0
 40
2.5
  1

 41
0.7
 51
15.0
  2
DATUM1
 70
     0
  0
ATTRIB
  5
CD149
  8
0
 62
     4
 10
60.53501
 20
12.0
 30
0.0
 40
2.5
  1

 41
0.7
 51
15.0
  2
NAME1
 70
     0
  0
ATTRIB
  5
CD14A
  8
0
 62
     4
 10
7.813733
 20
17.0
 30
0.0
 40
2.5
  1

 41
0.7
 51
15.0
  2
INDEX2
 70
     0
  0
ATTRIB
  5
CD14B
  8
0
 62
     4
 10
14.651257
 20
17.0
 30
0.0
 40
2.5
  1

 41
0.7
 51
15.0
  2
A2
 70
     0
  0
ATTRIB
  5
CD14C
  8
0
 62
     4
 10
47.651257
 20
17.0
 30
0.0
 40
2.5
  1

 41
0.7
 51
15.0
  2
DATUM2
 70
     0
  0
ATTRIB
  5
CD14D
  8
0
 62
     4
 10
60.53501
 20
17.0
 30
0.0
 40
2.5
  1

 41
0.7
 51
15.0
  2
NAME2
 70
     0
  0
ATTRIB
  5
CD14E
  8
0
 62
     4
 10
7.813733
 20
22.0
 30
0.0
 40
2.5
  1

 41
0.7
 51
15.0
  2
INDEX3
 70
     0
  0
ATTRIB
  5
CD14F
  8
0
 62
     4
 10
14.651257
 20
22.0
 30
0.0
 40
2.5
  1

 41
0.7
 51
15.0
  2
A3
 70
     0
  0
ATTRIB
  5
CD150
  8
0
 62
     4
 10
47.651257
 20
22.0
 30
0.0
 40
2.5
  1

 41
0.7
 51
15.0
  2
DATUM3
 70
     0
  0
ATTRIB
  5
CD151
  8
0
 62
     4
 10
60.53501
 20
22.0
 30
0.0
 40
2.5
  1

 41
0.7
 51
15.0
  2
NAME3
 70
     0
  0
ATTRIB
  5
CD152
  8
0
 62
     4
 10
7.813733
 20
27.0
 30
0.0
 40
2.5
  1

 41
0.7
 51
15.0
  2
INDEX4
 70
     0
  0
ATTRIB
  5
CD153
  8
0
 62
     4
 10
14.651257
 20
27.0
 30
0.0
 40
2.5
  1

 41
0.7
 51
15.0
  2
A4
 70
     0
  0
ATTRIB
  5
CD154
  8
0
 62
     4
 10
47.651257
 20
27.0
 30
0.0
 40
2.5
  1

 41
0.7
 51
15.0
  2
DATUM4
 70
     0
  0
ATTRIB
  5
CD155
  8
0
 62
     4
 10
60.53501
 20
27.0
 30
0.0
 40
2.5
  1

 41
0.7
 51
15.0
  2
NAME4
 70
     0
  0
ATTRIB
  5
CD156
  8
0
 62
     4
 10
7.813733
 20
32.0
 30
0.0
 40
2.5
  1

 41
0.7
 51
15.0
  2
INDEX5
 70
     0
  0
ATTRIB
  5
CD157
  8
0
 62
     4
 10
14.651257
 20
32.0
 30
0.0
 40
2.5
  1

 41
0.7
 51
15.0
  2
A5
 70
     0
  0
ATTRIB
  5
CD158
  8
0
 62
     4
 10
47.651257
 20
32.0
 30
0.0
 40
2.5
  1

 41
0.7
 51
15.0
  2
DATUM5
 70
     0
  0
ATTRIB
  5
CD159
  8
0
 62
     4
 10
60.53501
 20
32.0
 30
0.0
 40
2.5
  1

 41
0.7
 51
15.0
  2
NAME5
 70
     0
  0
ATTRIB
  5
CD15A
  8
0
 62
     4
 10
7.813733
 20
37.0
 30
0.0
 40
2.5
  1

 41
0.7
 51
15.0
  2
INDEX6
 70
     0
  0
ATTRIB
  5
CD15B
  8
0
 62
     4
 10
14.651257
 20
37.0
 30
0.0
 40
2.5
  1

 41
0.7
 51
15.0
  2
A6
 70
     0
  0
ATTRIB
  5
CD15C
  8
0
 62
     4
 10
47.651257
 20
37.0
 30
0.0
 40
2.5
  1

 41
0.7
 51
15.0
  2
DATUM6
 70
     0
  0
ATTRIB
  5
CD15D
  8
0
 62
     4
 10
60.53501
 20
37.0
 30
0.0
 40
2.5
  1

 41
0.7
 51
15.0
  2
NAME6
 70
     0
  0
ATTRIB
  5
CD15E
  8
0
 62
     4
 10
7.813733
 20
42.0
 30
0.0
 40
2.5
  1

 41
0.7
 51
15.0
  2
INDEX7
 70
     0
  0
ATTRIB
  5
CD15F
  8
0
 62
     4
 10
14.651257
 20
42.0
 30
0.0
 40
2.5
  1

 41
0.7
 51
15.0
  2
A7
 70
     0
  0
ATTRIB
  5
CD160
  8
0
 62
     4
 10
47.651257
 20
42.0
 30
0.0
 40
2.5
  1

 41
0.7
 51
15.0
  2
DATUM7
 70
     0
  0
ATTRIB
  5
CD161
  8
0
 62
     4
 10
60.53501
 20
42.0
 30
0.0
 40
2.5
  1

 41
0.7
 51
15.0
  2
NAME7
 70
     0
  0
ATTRIB
  5
CD162
  8
0
 62
     4
 10
7.813733
 20
47.0
 30
0.0
 40
2.5
  1

 41
0.7
 51
15.0
  2
INDEX8
 70
     0
  0
ATTRIB
  5
CD163
  8
0
 62
     4
 10
14.651257
 20
47.0
 30
0.0
 40
2.5
  1

 41
0.7
 51
15.0
  2
A8
 70
     0
  0
ATTRIB
  5
CD164
  8
0
 62
     4
 10
47.651257
 20
47.0
 30
0.0
 40
2.5
  1

 41
0.7
 51
15.0
  2
DATUM8
 70
     0
  0
ATTRIB
  5
CD165
  8
0
 62
     4
 10
60.53501
 20
47.0
 30
0.0
 40
2.5
  1

 41
0.7
 51
15.0
  2
NAME8
 70
     0
  0
SEQEND
  5
CD166
  8
BEM1
  0
ENDSEC
  0
EOF
