  0
SECTION
  2
HEADER
  9
$ACADVER
  1
AC1009
  9
$INSBASE
 10
0.0
 20
0.0
 30
0.0
  9
$EXTMIN
 10
0.0
 20
0.0
 30
0.0
  9
$EXTMAX
 10
210.0
 20
297.0
 30
0.0
  9
$LIMMIN
 10
0.0
 20
0.0
  9
$LIMMAX
 10
410.0
 20
287.0
  9
$ORTHOMODE
 70
     0
  9
$REGENMODE
 70
     1
  9
$FILLMODE
 70
     1
  9
$QTEXTMODE
 70
     0
  9
$MIRRTEXT
 70
     1
  9
$DRAGMODE
 70
     2
  9
$LTSCALE
 40
3.0
  9
$OSMODE
 70
    33
  9
$ATTMODE
 70
     1
  9
$TEXTSIZE
 40
5.0
  9
$TRACEWID
 40
26.0
  9
$TEXTSTYLE
  7
STANDARD
  9
$CLAYER
  8
BEM1
  9
$CELTYPE
  6
BYLAYER
  9
$CECOLOR
 62
   256
  9
$DIMSCALE
 40
1.0
  9
$DIMASZ
 40
3.5
  9
$DIMEXO
 40
1.0
  9
$DIMDLI
 40
8.0
  9
$DIMRND
 40
0.0
  9
$DIMDLE
 40
0.0
  9
$DIMEXE
 40
1.2
  9
$DIMTP
 40
0.0
  9
$DIMTM
 40
0.0
  9
$DIMTXT
 40
3.5
  9
$DIMCEN
 40
0.0
  9
$DIMTSZ
 40
0.0
  9
$DIMTOL
 70
     0
  9
$DIMLIM
 70
     0
  9
$DIMTIH
 70
     0
  9
$DIMTOH
 70
     0
  9
$DIMSE1
 70
     0
  9
$DIMSE2
 70
     0
  9
$DIMTAD
 70
     1
  9
$DIMZIN
 70
     0
  9
$DIMBLK
  1

  9
$DIMASO
 70
     0
  9
$DIMSHO
 70
     0
  9
$DIMPOST
  1

  9
$DIMAPOST
  1
"
  9
$DIMALT
 70
     0
  9
$DIMALTD
 70
     3
  9
$DIMALTF
 40
0.03937
  9
$DIMLFAC
 40
1.0
  9
$DIMTOFL
 70
     0
  9
$DIMTVP
 40
0.0
  9
$DIMTIX
 70
     1
  9
$DIMSOXD
 70
     0
  9
$DIMSAH
 70
     0
  9
$DIMBLK1
  1

  9
$DIMBLK2
  1

  9
$DIMSTYLE
  2
NEUTRIK
  9
$DIMCLRD
 70
     4
  9
$DIMCLRE
 70
     4
  9
$DIMCLRT
 70
     3
  9
$DIMTFAC
 40
1.0
  9
$DIMGAP
 40
0.15
  9
$LUNITS
 70
     2
  9
$LUPREC
 70
     2
  9
$SKETCHINC
 40
0.387898
  9
$FILLETRAD
 40
1.0
  9
$AUNITS
 70
     0
  9
$AUPREC
 70
     2
  9
$MENU
  1
acad
  9
$ELEVATION
 40
0.0
  9
$PELEVATION
 40
0.0
  9
$THICKNESS
 40
0.0
  9
$LIMCHECK
 70
     0
  9
$BLIPMODE
 70
     0
  9
$CHAMFERA
 40
0.0
  9
$CHAMFERB
 40
0.0
  9
$SKPOLY
 70
     0
  9
$TDCREATE
 40
2450555.560589
  9
$TDUPDATE
 40
2453319.445432
  9
$TDINDWG
 40
0.744228
  9
$TDUSRTIMER
 40
0.744228
  9
$USRTIMER
 70
     1
  9
$ANGBASE
 50
0.0
  9
$ANGDIR
 70
     0
  9
$PDMODE
 70
     0
  9
$PDSIZE
 40
0.0
  9
$PLINEWID
 40
0.0
  9
$COORDS
 70
     2
  9
$SPLFRAME
 70
     0
  9
$SPLINETYPE
 70
     6
  9
$SPLINESEGS
 70
     8
  9
$ATTDIA
 70
     0
  9
$ATTREQ
 70
     1
  9
$HANDLING
 70
     1
  9
$HANDSEED
  5
201
  9
$SURFTAB1
 70
     6
  9
$SURFTAB2
 70
     6
  9
$SURFTYPE
 70
     6
  9
$SURFU
 70
     6
  9
$SURFV
 70
     6
  9
$UCSNAME
  2

  9
$UCSORG
 10
0.0
 20
0.0
 30
0.0
  9
$UCSXDIR
 10
1.0
 20
0.0
 30
0.0
  9
$UCSYDIR
 10
0.0
 20
1.0
 30
0.0
  9
$PUCSNAME
  2

  9
$PUCSORG
 10
0.0
 20
0.0
 30
0.0
  9
$PUCSXDIR
 10
1.0
 20
0.0
 30
0.0
  9
$PUCSYDIR
 10
0.0
 20
1.0
 30
0.0
  9
$USERI1
 70
     0
  9
$USERI2
 70
     0
  9
$USERI3
 70
     0
  9
$USERI4
 70
     0
  9
$USERI5
 70
     0
  9
$USERR1
 40
0.0
  9
$USERR2
 40
0.0
  9
$USERR3
 40
0.0
  9
$USERR4
 40
0.0
  9
$USERR5
 40
0.0
  9
$WORLDVIEW
 70
     1
  9
$SHADEDGE
 70
     3
  9
$SHADEDIF
 70
    70
  9
$TILEMODE
 70
     1
  9
$MAXACTVP
 70
    16
  9
$PLIMCHECK
 70
     0
  9
$PEXTMIN
 10
1.000000E+020
 20
1.000000E+020
 30
1.000000E+020
  9
$PEXTMAX
 10
-1.000000E+020
 20
-1.000000E+020
 30
-1.000000E+020
  9
$PLIMMIN
 10
0.0
 20
0.0
  9
$PLIMMAX
 10
12.0
 20
9.0
  9
$UNITMODE
 70
     0
  9
$VISRETAIN
 70
     0
  9
$PLINEGEN
 70
     0
  9
$PSLTSCALE
 70
     0
  0
ENDSEC
  0
SECTION
  2
TABLES
  0
TABLE
  2
VPORT
 70
     2
  0
VPORT
  2
*ACTIVE
 70
     0
 10
0.0
 20
0.0
 11
1.0
 21
1.0
 12
105.008289
 22
148.497741
 13
0.0
 23
0.0
 14
1.0
 24
1.0
 15
2.0
 25
2.0
 16
0.0
 26
0.0
 36
1.0
 17
0.0
 27
0.0
 37
0.0
 40
299.229271
 41
1.525
 42
50.0
 43
0.0
 44
0.0
 50
0.0
 51
0.0
 71
     0
 72
   500
 73
     1
 74
     0
 75
     0
 76
     0
 77
     0
 78
     2
  0
ENDTAB
  0
TABLE
  2
LTYPE
 70
     2
  0
LTYPE
  2
AUSGEZOGEN
 70
     0
  3
Ausgezogene Linie
 72
    65
 73
     0
 40
0.0
  0
LTYPE
  2
CENTER
 70
     0
  3
____ _ ____ _ ____ _ ____ _ ____ _ ____ _ ____
 72
    65
 73
     4
 40
2.0
 49
1.25
 49
-0.25
 49
0.25
 49
-0.25
  0
ENDTAB
  0
TABLE
  2
LAYER
 70
     9
  0
LAYER
  2
0
 70
     0
 62
     7
  6
AUSGEZOGEN
  0
LAYER
  2
05
 70
     0
 62
     2
  6
AUSGEZOGEN
  0
LAYER
  2
SCHRAFFIERT
 70
     0
 62
     4
  6
AUSGEZOGEN
  0
LAYER
  2
035
 70
     0
 62
     3
  6
AUSGEZOGEN
  0
LAYER
  2
025
 70
     0
 62
     4
  6
AUSGEZOGEN
  0
LAYER
  2
010
 70
     0
 62
     5
  6
AUSGEZOGEN
  0
LAYER
  2
MITTE
 70
     0
 62
     4
  6
CENTER
  0
LAYER
  2
BEM1
 70
     0
 62
     4
  6
AUSGEZOGEN
  0
LAYER
  2
RAHMEN
 70
     0
 62
     2
  6
AUSGEZOGEN
  0
ENDTAB
  0
TABLE
  2
STYLE
 70
     2
  0
STYLE
  2
STANDARD
 70
     0
 40
0.0
 41
0.7
 50
15.0
 71
     0
 42
3.5
  3
txt
  4

  0
STYLE
  2
SCRIPTS
 70
     0
 40
0.0
 41
1.0
 50
0.0
 71
     0
 42
5.0
  3
scripts
  4

  0
ENDTAB
  0
TABLE
  2
VIEW
 70
     0
  0
ENDTAB
  0
TABLE
  2
UCS
 70
     0
  0
ENDTAB
  0
TABLE
  2
APPID
 70
     1
  0
APPID
  2
ACAD
 70
     0
  0
ENDTAB
  0
TABLE
  2
DIMSTYLE
 70
     1
  0
DIMSTYLE
  2
NEUTRIK
 70
     0
  3

  4
"
  5

  6

  7

 40
1.0
 41
3.5
 42
1.0
 43
8.0
 44
1.2
 45
0.0
 46
0.0
 47
0.0
 48
0.0
140
3.5
141
0.0
142
0.0
143
0.03937
144
1.0
145
0.0
146
1.0
147
0.15
 71
     0
 72
     0
 73
     0
 74
     0
 75
     0
 76
     0
 77
     1
 78
     0
170
     0
171
     3
172
     0
173
     0
174
     1
175
     0
176
     4
177
     4
178
     3
  0
ENDTAB
  0
ENDSEC
  0
SECTION
  2
BLOCKS
  0
BLOCK
  8
0
  2
$MODEL_SPACE
 70
     0
 10
0.0
 20
0.0
 30
0.0
  3
$MODEL_SPACE
  1

  0
ENDBLK
  5
6
  8
0
  0
BLOCK
 67
     1
  8
0
  2
$PAPER_SPACE
 70
     0
 10
0.0
 20
0.0
 30
0.0
  3
$PAPER_SPACE
  1

  0
ENDBLK
  5
9
 67
     1
  8
0
  0
BLOCK
  8
0
  2
*X0
 70
     1
 10
0.0
 20
0.0
 30
0.0
  3
*X0
  1

  0
LINE
  5
14A
  8
0
 62
     0
 10
231.230014
 20
231.230014
 30
0.0
 11
233.9104
 21
233.9104
 31
0.0
  0
LINE
  5
14B
  8
0
 62
     0
 10
233.9104
 20
233.9104
 30
0.0
 11
237.980014
 21
237.980014
 31
0.0
  0
LINE
  5
14C
  8
0
 62
     0
 10
231.230014
 20
233.351334
 30
0.0
 11
231.78908
 21
233.9104
 31
0.0
  0
LINE
  5
14D
  8
0
 62
     0
 10
231.78908
 20
233.9104
 30
0.0
 11
237.980014
 21
240.101334
 31
0.0
  0
LINE
  5
14E
  8
0
 62
     0
 10
231.230014
 20
235.472654
 30
0.0
 11
237.980014
 21
242.222654
 31
0.0
  0
LINE
  5
14F
  8
0
 62
     0
 10
231.230014
 20
237.593975
 30
0.0
 11
236.226439
 21
242.5904
 31
0.0
  0
LINE
  5
150
  8
0
 62
     0
 10
231.230014
 20
239.715295
 30
0.0
 11
234.105119
 21
242.5904
 31
0.0
  0
LINE
  5
151
  8
0
 62
     0
 10
231.230014
 20
241.836615
 30
0.0
 11
231.983798
 21
242.5904
 31
0.0
  0
LINE
  5
152
  8
0
 62
     0
 10
231.230014
 20
229.108693
 30
0.0
 11
236.03172
 21
233.9104
 31
0.0
  0
LINE
  5
153
  8
0
 62
     0
 10
236.03172
 20
233.9104
 30
0.0
 11
237.980014
 21
235.858693
 31
0.0
  0
LINE
  5
154
  8
0
 62
     0
 10
231.230014
 20
226.987373
 30
0.0
 11
237.980014
 21
233.737373
 31
0.0
  0
LINE
  5
155
  8
0
 62
     0
 10
231.594361
 20
225.2304
 30
0.0
 11
237.980014
 21
231.616053
 31
0.0
  0
LINE
  5
156
  8
0
 62
     0
 10
233.715681
 20
225.2304
 30
0.0
 11
237.980014
 21
229.494732
 31
0.0
  0
LINE
  5
157
  8
0
 62
     0
 10
235.837002
 20
225.2304
 30
0.0
 11
237.980014
 21
227.373412
 31
0.0
  0
LINE
  5
158
  8
0
 62
     0
 10
237.958322
 20
225.2304
 30
0.0
 11
237.980014
 21
225.252092
 31
0.0
  0
LINE
  5
159
  8
0
 62
     0
 10
237.980014
 20
228.710462
 30
0.0
 11
232.780076
 21
233.9104
 31
0.0
  0
LINE
  5
15A
  8
0
 62
     0
 10
232.780076
 20
233.9104
 30
0.0
 11
231.230014
 21
235.460462
 31
0.0
  0
LINE
  5
15B
  8
0
 62
     0
 10
237.980014
 20
226.589142
 30
0.0
 11
231.230014
 21
233.339142
 31
0.0
  0
LINE
  5
15C
  8
0
 62
     0
 10
237.217435
 20
225.2304
 30
0.0
 11
231.230014
 21
231.217821
 31
0.0
  0
LINE
  5
15D
  8
0
 62
     0
 10
235.096115
 20
225.2304
 30
0.0
 11
231.230014
 21
229.096501
 31
0.0
  0
LINE
  5
15E
  8
0
 62
     0
 10
232.974794
 20
225.2304
 30
0.0
 11
231.230014
 21
226.975181
 31
0.0
  0
LINE
  5
15F
  8
0
 62
     0
 10
237.980014
 20
230.831782
 30
0.0
 11
234.901396
 21
233.9104
 31
0.0
  0
LINE
  5
160
  8
0
 62
     0
 10
234.901396
 20
233.9104
 30
0.0
 11
231.230014
 21
237.581782
 31
0.0
  0
LINE
  5
161
  8
0
 62
     0
 10
237.980014
 20
232.953103
 30
0.0
 11
237.022716
 21
233.9104
 31
0.0
  0
LINE
  5
162
  8
0
 62
     0
 10
237.022716
 20
233.9104
 30
0.0
 11
231.230014
 21
239.703103
 31
0.0
  0
LINE
  5
163
  8
0
 62
     0
 10
237.980014
 20
235.074423
 30
0.0
 11
231.230014
 21
241.824423
 31
0.0
  0
LINE
  5
164
  8
0
 62
     0
 10
237.980014
 20
237.195743
 30
0.0
 11
232.585357
 21
242.5904
 31
0.0
  0
LINE
  5
165
  8
0
 62
     0
 10
237.980014
 20
239.317064
 30
0.0
 11
234.706677
 21
242.5904
 31
0.0
  0
LINE
  5
166
  8
0
 62
     0
 10
237.980014
 20
241.438384
 30
0.0
 11
236.827998
 21
242.5904
 31
0.0
  0
ENDBLK
  5
168
  8
0
  0
BLOCK
  8
0
  2
A$C36291E6D
 70
     0
 10
0.0
 20
0.0
 30
0.0
  3
A$C36291E6D
  1

  0
LINE
  5
10D
  8
025
 10
1.130109
 20
0.0
 30
0.0
 11
0.0
 21
0.27333
 31
0.0
  0
LINE
  5
10E
  8
025
 10
1.130109
 20
0.0
 30
0.0
 11
1.130109
 21
0.807569
 31
0.0
  0
LINE
  5
10F
  8
025
 10
1.130109
 20
5.19107
 30
0.0
 11
0.019846
 21
6.237557
 31
0.0
  0
LINE
  5
110
  8
025
 10
0.019846
 20
7.159926
 30
0.0
 11
1.130109
 21
7.741262
 31
0.0
  0
LINE
  5
111
  8
025
 10
1.130109
 20
8.034964
 30
0.0
 11
0.019846
 21
8.303494
 31
0.0
  0
LINE
  5
112
  8
025
 10
1.130109
 20
8.756284
 30
0.0
 11
0.4437
 21
8.9223
 31
0.0
  0
LINE
  5
113
  8
025
 10
1.130109
 20
10.536761
 30
0.0
 11
0.019846
 21
10.805291
 31
0.0
  0
LINE
  5
114
  8
025
 10
1.130109
 20
9.552094
 30
0.0
 11
0.4437
 21
8.9223
 31
0.0
  0
LINE
  5
115
  8
025
 10
1.130109
 20
0.807569
 30
0.0
 11
0.676481
 21
0.917284
 31
0.0
  0
LINE
  5
116
  8
025
 10
1.130109
 20
1.579241
 30
0.0
 11
0.676481
 21
0.917284
 31
0.0
  0
LINE
  5
117
  8
025
 10
1.130109
 20
2.464928
 30
0.0
 11
0.688754
 21
1.82088
 31
0.0
  0
LINE
  5
118
  8
025
 10
1.131907
 20
2.775782
 30
0.0
 11
0.019846
 21
3.044746
 31
0.0
  0
LINE
  5
119
  8
025
 10
0.842479
 20
3.607205
 30
0.0
 11
0.665456
 21
3.65002
 31
0.0
  0
LINE
  5
11A
  8
025
 10
0.665456
 20
4.647943
 30
0.0
 11
0.431162
 21
4.70461
 31
0.0
  0
LINE
  5
11B
  8
025
 10
0.274966
 20
3.744464
 30
0.0
 11
0.274966
 21
5.030805
 31
0.0
  0
LINE
  5
11C
  8
025
 10
0.274966
 20
5.030805
 30
0.0
 11
0.019846
 21
5.092509
 31
0.0
  0
LINE
  5
11D
  8
025
 10
0.0
 20
0.27333
 30
0.0
 11
0.0
 21
1.147037
 31
0.0
  0
LINE
  5
11E
  8
025
 10
0.234328
 20
1.012428
 30
0.0
 11
0.234328
 21
1.385901
 31
0.0
  0
LINE
  5
11F
  8
025
 10
0.531325
 20
0.940596
 30
0.0
 11
0.531325
 21
1.332755
 31
0.0
  0
LINE
  5
120
  8
025
 10
0.531325
 20
0.940596
 30
0.0
 11
0.234328
 21
1.012428
 31
0.0
  0
ARC
  5
121
  8
025
 10
0.371059
 20
1.592039
 30
0.0
 40
0.095178
 50
38.183971
 51
158.249048
  0
ARC
  5
122
  8
025
 10
0.029741
 20
1.369906
 30
0.0
 40
0.502105
 50
22.130003
 51
34.027207
  0
ARC
  5
123
  8
025
 10
1.2368
 20
1.31075
 30
0.0
 40
1.005284
 50
161.64551
 51
175.712788
  0
ARC
  5
124
  8
025
 10
-0.704299
 20
1.24972
 30
0.0
 40
1.238411
 50
3.844537
 51
14.464628
  0
ARC
  5
125
  8
025
 10
8.830985
 20
1.277902
 30
0.0
 40
8.832293
 50
174.676683
 51
180.985976
  0
ARC
  5
126
  8
025
 10
0.654005
 20
2.079206
 30
0.0
 40
0.617485
 50
141.536856
 51
152.015041
  0
ARC
  5
127
  8
025
 10
0.314351
 20
2.352999
 30
0.0
 40
0.180978
 50
70.399744
 51
141.414228
  0
ARC
  5
128
  8
025
 10
0.227015
 20
2.179626
 30
0.0
 40
0.373551
 50
16.581886
 51
68.146956
  0
ARC
  5
129
  8
025
 10
-1.204269
 20
1.644394
 30
0.0
 40
1.901232
 50
5.326278
 51
19.525993
  0
ARC
  5
12A
  8
025
 10
1.415981
 20
1.881828
 30
0.0
 40
1.39507
 50
159.562986
 51
171.731692
  0
LINE
  5
12B
  8
025
 10
0.431162
 20
3.706686
 30
0.0
 11
0.431162
 21
4.70461
 31
0.0
  0
LINE
  5
12C
  8
025
 10
0.665456
 20
3.65002
 30
0.0
 11
0.665456
 21
4.647943
 31
0.0
  0
LINE
  5
12D
  8
025
 10
0.431162
 20
3.706686
 30
0.0
 11
0.274966
 21
3.744464
 31
0.0
  0
LINE
  5
12E
  8
025
 10
0.019846
 20
3.044746
 30
0.0
 11
0.019846
 21
5.092509
 31
0.0
  0
LINE
  5
12F
  8
025
 10
0.019846
 20
6.237557
 30
0.0
 11
0.019846
 21
7.159926
 31
0.0
  0
LINE
  5
130
  8
025
 10
0.421014
 20
6.562617
 30
0.0
 11
0.738348
 21
6.728774
 31
0.0
  0
LINE
  5
131
  8
025
 10
0.738348
 20
6.263512
 30
0.0
 11
0.421014
 21
6.562617
 31
0.0
  0
LINE
  5
132
  8
025
 10
0.738348
 20
6.263512
 30
0.0
 11
0.738348
 21
6.728774
 31
0.0
  0
LINE
  5
133
  8
025
 10
0.019846
 20
8.303494
 30
0.0
 11
0.019846
 21
9.268698
 31
0.0
  0
LINE
  5
134
  8
025
 10
0.683663
 20
9.877763
 30
0.0
 11
0.019846
 21
9.268698
 31
0.0
  0
LINE
  5
135
  8
025
 10
0.019846
 20
10.038315
 30
0.0
 11
0.019846
 21
10.805291
 31
0.0
  0
LINE
  5
136
  8
025
 10
0.019846
 20
8.533405
 30
0.0
 11
0.019051
 21
8.532675
 31
0.0
  0
LINE
  5
137
  8
025
 10
0.683663
 20
9.877763
 30
0.0
 11
0.019846
 21
10.038315
 31
0.0
  0
LINE
  5
138
  8
025
 10
1.130109
 20
5.894254
 30
0.0
 11
0.993468
 21
6.023046
 31
0.0
  0
LINE
  5
139
  8
025
 10
1.131907
 20
4.823544
 30
0.0
 11
0.842479
 21
4.893546
 31
0.0
  0
LINE
  5
13A
  8
025
 10
1.130109
 20
5.19107
 30
0.0
 11
1.130109
 21
5.894254
 31
0.0
  0
LINE
  5
13B
  8
025
 10
1.130109
 20
1.579241
 30
0.0
 11
1.130109
 21
2.486046
 31
0.0
  0
LINE
  5
13C
  8
025
 10
0.842479
 20
3.607205
 30
0.0
 11
0.842479
 21
4.893546
 31
0.0
  0
LINE
  5
13D
  8
025
 10
1.130109
 20
2.776216
 30
0.0
 11
1.130109
 21
4.823979
 31
0.0
  0
LINE
  5
13E
  8
025
 10
1.130109
 20
6.933901
 30
0.0
 11
1.130109
 21
7.741262
 31
0.0
  0
LINE
  5
13F
  8
025
 10
0.993468
 20
6.862355
 30
0.0
 11
1.130109
 21
6.933901
 31
0.0
  0
LINE
  5
140
  8
025
 10
0.993468
 20
6.023046
 30
0.0
 11
0.993468
 21
6.862355
 31
0.0
  0
LINE
  5
141
  8
025
 10
1.130109
 20
8.034964
 30
0.0
 11
1.130109
 21
8.756284
 31
0.0
  0
LINE
  5
142
  8
025
 10
1.130109
 20
9.552094
 30
0.0
 11
1.130109
 21
10.536761
 31
0.0
  0
ENDBLK
  5
144
  8
0
  0
BLOCK
  8
0
  2
ZKOPF-REAN
 70
     2
 10
0.0
 20
0.0
 30
0.0
  3
ZKOPF-REAN
  1

  0
TEXT
  5
4F
  8
035
 10
517.653158
 20
512.84859
 30
0.0
 40
3.5
  1
  
 41
0.7
 51
15.0
  0
TEXT
  5
51
  8
035
 10
517.653158
 20
512.84859
 30
0.0
 40
3.5
  1
  
 41
0.7
 51
15.0
  0
TEXT
  5
52
  8
035
 10
517.653158
 20
512.84859
 30
0.0
 40
3.5
  1
  
 41
0.7
 51
15.0
  0
TEXT
  5
53
  8
035
 10
517.653158
 20
512.84859
 30
0.0
 40
3.5
  1
  
 41
0.7
 51
15.0
  0
TEXT
  5
54
  8
035
 10
517.653158
 20
512.84859
 30
0.0
 40
3.5
  1
  
 41
0.7
 51
15.0
  0
TEXT
  5
55
  8
035
 10
517.653158
 20
512.84859
 30
0.0
 40
3.5
  1
  
 41
0.7
 51
15.0
  0
TEXT
  5
56
  8
035
 10
517.653158
 20
512.84859
 30
0.0
 40
3.5
  1
  
 41
0.7
 51
15.0
  0
TEXT
  5
57
  8
035
 10
517.653158
 20
512.84859
 30
0.0
 40
3.5
  1
  
 41
0.7
 51
15.0
  0
TEXT
  5
58
  8
035
 10
517.653158
 20
512.84859
 30
0.0
 40
3.5
  1
  
 41
0.7
 51
15.0
  0
TEXT
  5
59
  8
035
 10
517.653158
 20
512.84859
 30
0.0
 40
3.5
  1
  
 41
0.7
 51
15.0
  0
TEXT
  5
5A
  8
035
 10
517.653158
 20
512.84859
 30
0.0
 40
3.5
  1
  
 41
0.7
 51
15.0
  0
TEXT
  5
5B
  8
035
 10
517.653158
 20
512.84859
 30
0.0
 40
3.5
  1
  
 41
0.7
 51
15.0
  0
ATTDEF
  5
5C
  8
0
 62
     4
 10
-15.166667
 20
37.0
 30
0.0
 40
2.5
  1
Battlogg
  7
SCRIPTS
 72
     1
 11
-8.5
 21
37.0
 31
0.0
  3
Name des Konstrukteurs ?
  2
NAME
 70
     0
  0
POLYLINE
  5
5D
  8
0
 62
     2
 66
     1
 10
0.0
 20
0.0
 30
0.0
  0
VERTEX
  5
183
  8
0
 62
     2
 10
-51.0
 20
0.0
 30
0.0
  0
VERTEX
  5
184
  8
0
 62
     2
 10
-51.0
 20
46.0
 30
0.0
  0
SEQEND
  5
185
  8
0
 62
     2
  0
POLYLINE
  5
5E
  8
0
 62
     2
 66
     1
 10
0.0
 20
0.0
 30
0.0
  0
VERTEX
  5
186
  8
0
 62
     2
 10
-17.0
 20
9.0
 30
0.0
  0
VERTEX
  5
187
  8
0
 62
     2
 10
-17.0
 20
46.0
 30
0.0
  0
SEQEND
  5
188
  8
0
 62
     2
  0
POLYLINE
  5
5F
  8
0
 62
     2
 66
     1
 10
0.0
 20
0.0
 30
0.0
  0
VERTEX
  5
189
  8
0
 62
     2
 10
-32.0
 20
26.0
 30
0.0
  0
VERTEX
  5
18A
  8
0
 62
     2
 10
-32.0
 20
46.0
 30
0.0
  0
SEQEND
  5
18B
  8
0
 62
     2
  0
POLYLINE
  5
60
  8
0
 62
     2
 66
     1
 10
0.0
 20
0.0
 30
0.0
  0
VERTEX
  5
18C
  8
0
 62
     2
 10
-133.0
 20
41.0
 30
0.0
  0
VERTEX
  5
18D
  8
0
 62
     2
 10
-92.0
 20
41.0
 30
0.0
  0
SEQEND
  5
18E
  8
0
 62
     2
  0
POLYLINE
  5
61
  8
0
 62
     2
 66
     1
 10
0.0
 20
0.0
 30
0.0
  0
VERTEX
  5
18F
  8
0
 62
     2
 10
-145.0
 20
0.0
 30
0.0
  0
VERTEX
  5
190
  8
0
 62
     2
 10
-145.0
 20
46.0
 30
0.0
  0
SEQEND
  5
191
  8
0
 62
     2
  0
POLYLINE
  5
62
  8
0
 62
     2
 66
     1
 10
0.0
 20
0.0
 30
0.0
  0
VERTEX
  5
192
  8
0
 62
     2
 10
-158.0
 20
0.0
 30
0.0
  0
VERTEX
  5
193
  8
0
 62
     2
 10
-158.0
 20
46.0
 30
0.0
  0
SEQEND
  5
194
  8
0
 62
     2
  0
LINE
  5
63
  8
0
 62
     2
 10
-200.0
 20
6.0
 30
0.0
 11
-133.0
 21
6.0
 31
0.0
  0
POLYLINE
  5
64
  8
0
 62
     4
 66
     1
 10
0.0
 20
0.0
 30
0.0
  0
VERTEX
  5
195
  8
0
 62
     4
 10
-200.0
 20
11.0
 30
0.0
  0
VERTEX
  5
196
  8
0
 62
     4
 10
-133.0
 20
11.0
 30
0.0
  0
SEQEND
  5
197
  8
0
 62
     4
  0
POLYLINE
  5
65
  8
0
 62
     4
 66
     1
 10
0.0
 20
0.0
 30
0.0
  0
VERTEX
  5
198
  8
0
 62
     4
 10
-200.0
 20
16.0
 30
0.0
  0
VERTEX
  5
199
  8
0
 62
     4
 10
-133.0
 20
16.0
 30
0.0
  0
SEQEND
  5
19A
  8
0
 62
     4
  0
POLYLINE
  5
66
  8
0
 62
     4
 66
     1
 10
0.0
 20
0.0
 30
0.0
  0
VERTEX
  5
19B
  8
0
 62
     4
 10
-200.0
 20
21.0
 30
0.0
  0
VERTEX
  5
19C
  8
0
 62
     4
 10
-133.0
 20
21.0
 30
0.0
  0
SEQEND
  5
19D
  8
0
 62
     4
  0
POLYLINE
  5
67
  8
0
 62
     4
 66
     1
 10
0.0
 20
0.0
 30
0.0
  0
VERTEX
  5
19E
  8
0
 62
     4
 10
-200.0
 20
26.0
 30
0.0
  0
VERTEX
  5
19F
  8
0
 62
     4
 10
-133.0
 20
26.0
 30
0.0
  0
SEQEND
  5
1A0
  8
0
 62
     4
  0
POLYLINE
  5
68
  8
0
 62
     4
 66
     1
 10
0.0
 20
0.0
 30
0.0
  0
VERTEX
  5
1A1
  8
0
 62
     4
 10
-200.0
 20
31.0
 30
0.0
  0
VERTEX
  5
1A2
  8
0
 62
     4
 10
-133.0
 20
31.0
 30
0.0
  0
SEQEND
  5
1A3
  8
0
 62
     4
  0
POLYLINE
  5
69
  8
0
 62
     4
 66
     1
 10
0.0
 20
0.0
 30
0.0
  0
VERTEX
  5
1A4
  8
0
 62
     4
 10
-200.0
 20
36.0
 30
0.0
  0
VERTEX
  5
1A5
  8
0
 62
     4
 10
-133.0
 20
36.0
 30
0.0
  0
SEQEND
  5
1A6
  8
0
 62
     4
  0
POLYLINE
  5
6A
  8
0
 62
     4
 66
     1
 10
0.0
 20
0.0
 30
0.0
  0
VERTEX
  5
1A7
  8
0
 62
     4
 10
-200.0
 20
41.0
 30
0.0
  0
VERTEX
  5
1A8
  8
0
 62
     4
 10
-133.0
 20
41.0
 30
0.0
  0
SEQEND
  5
1A9
  8
0
 62
     4
  0
TEXT
  5
6B
  8
0
 62
     4
 10
-50.0
 20
6.0
 30
0.0
 40
1.5
  1
Zeichn. Nr.
 51
15.0
  0
TEXT
  5
6C
  8
0
 62
     4
 10
-50.0
 20
23.0
 30
0.0
 40
1.5
  1
Ersetzt durch:         Blatt
 51
15.0
  0
TEXT
  5
6D
  8
0
 62
     4
 10
-50.0
 20
38.0
 30
0.0
 40
1.5
  1
Gezeichnet
 51
15.0
  0
TEXT
  5
6E
  8
0
 62
     4
 10
-50.0
 20
27.0
 30
0.0
 40
1.5
  1
Gesehen
 51
15.0
  0
TEXT
  5
6F
  8
0
 62
     4
 10
-31.0
 20
42.0
 30
0.0
 40
1.5
  1
Datum     Name
 51
15.0
  0
TEXT
  5
70
  8
0
 62
     4
 10
-91.0
 20
42.0
 30
0.0
 40
1.5
  1
Werkstoff:      Massstab:
 51
15.0
  0
TEXT
  5
71
  8
0
 62
     4
 10
-132.0
 20
23.0
 30
0.0
 40
1.5
  1
Benennung:
 51
15.0
  0
LINE
  5
72
  8
0
 62
     2
 10
-133.0
 20
33.0
 30
0.0
 11
-92.0
 21
33.0
 31
0.0
  0
TEXT
  5
73
  8
0
 62
     4
 10
-132.0
 20
39.0
 30
0.0
 40
1.5
  1
*)Lieferant darf ohne 
 51
15.0
  0
TEXT
  5
74
  8
0
 62
     4
 10
-132.0
 20
36.5
 30
0.0
 40
1.5
  1
 Ruecksprache nicht 
 51
15.0
  0
TEXT
  5
75
  8
0
 62
     4
 10
-132.0
 20
34.0
 30
0.0
 40
1.5
  1
 geaendert werden
 51
15.0
  0
TEXT
  5
76
  8
0
 62
     4
 10
-132.0
 20
30.0
 30
0.0
 40
1.5
  1
Zeichnung urheberrechtlich
 51
15.0
  0
TEXT
  5
77
  8
0
 62
     4
 10
-132.0
 20
27.5
 30
0.0
 40
1.5
  1
geschuetzt (DIN 34) (C)
 51
15.0
  0
TEXT
  5
78
  8
0
 62
     4
 10
-50.0
 20
32.0
 30
0.0
 40
1.5
  1
Geprueft
 51
15.0
  0
TEXT
  5
79
  8
0
 62
     4
 10
-50.0
 20
15.0
 30
0.0
 40
1.5
  1
Ersatz fuer:           von  Blatt
 51
15.0
  0
TEXT
  5
7A
  8
0
 62
     4
 10
-197.0
 20
1.0
 30
0.0
 40
1.5
  1
Ind.  Aenderung             Datum    Name
 51
15.0
  0
ATTDEF
  5
7B
  8
0
 62
     4
 10
-30.770833
 20
37.0
 30
0.0
 40
2.5
  1
03.11.2004
 41
0.7
 51
15.0
 72
     1
 11
-24.5
 21
37.0
 31
0.0
  3
Datum der Zeichnung ?
  2
DATE
 70
     0
  0
ATTDEF
  5
7C
  8
0
 62
     4
 10
-80.5
 20
36.0
 30
0.0
 40
2.5
  1

 41
0.7
 51
15.0
 72
     1
 11
-80.5
 21
36.0
 31
0.0
  3
Aus welchem Werkstoff ?
  2
WERKSTOFF
 70
     0
  0
ATTDEF
  5
7D
  8
0
 62
     2
 10
-92.0
 20
12.5
 30
0.0
 40
5.0
  1

 41
0.7
 51
15.0
 72
     1
 11
-92.0
 21
12.5
 31
0.0
  3
Zeichnungsname ?
  2
BENENNUNG
 70
     0
  0
ATTDEF
  5
7E
  8
0
 62
     3
 10
-90.265457
 20
21.082191
 30
0.0
 40
3.5
  1
()
 41
0.7
 51
15.0
 72
     1
 11
-89.040457
 21
21.082191
 31
0.0
  3
Zu welchem Produkt ?
  2
TEIL
 70
     0
  0
ATTDEF
  5
7F
  8
0
 62
     3
 10
-20.550219
 20
1.976541
 30
0.0
 40
3.5
  1

 41
0.7
 51
15.0
 72
     1
 11
-20.550219
 21
1.976541
 31
0.0
  3
Zeichnungsnummer ?
  2
NUMMER
 70
     0
  0
ATTDEF
  5
80
  8
0
 62
     2
 10
-62.899338
 20
34.656056
 30
0.0
 40
5.0
  1
1:1
 41
0.7
 51
15.0
 72
     1
 11
-60.566005
 21
34.656056
 31
0.0
  3
Hauptmassstab:
  2
MASS
 70
     0
  0
ATTDEF
  5
81
  8
0
 62
     3
 10
-60.480701
 20
28.210451
 30
0.0
 40
3.5
  1

 41
0.7
 51
15.0
 72
     1
 11
-60.480701
 21
28.210451
 31
0.0
  3
Nebenmassstab:
  2
MASS2
 70
     0
  0
ATTDEF
  5
82
  8
0
 62
     4
 10
-81.0
 20
29.0
 30
0.0
 40
2.5
  1

 41
0.7
 51
15.0
 72
     1
 11
-81.0
 21
29.0
 31
0.0
  3
Werkstoffzusatz:
  2
TEIL
 70
     0
  0
ATTDEF
  5
83
  8
0
 62
     3
 10
-107.711452
 20
59.004319
 30
0.0
 40
3.5
  1
Freimasstoleranzen %%p0.1
 41
0.7
 51
15.0
  3
Freimasstoleranzen:
  2
TOL
 70
     0
  0
ATTDEF
  5
84
  8
0
 62
     3
 10
-107.711452
 20
54.004319
 30
0.0
 40
3.5
  1
nicht bemasste Radien R=0.2
 41
0.7
 51
15.0
  3
Nicht bemasste Radien:
  2
RADIEN
 70
     0
  0
ATTDEF
  5
85
  8
0
 62
     3
 10
-107.711452
 20
49.004319
 30
0.0
 40
3.5
  1
nicht bemasste Facetten 0.5 x 45%%D
 41
0.7
 51
15.0
  3
nicht bemasste Facetten:
  2
FACETTE
 70
     0
  0
POLYLINE
  5
86
  8
0
 62
     2
 66
     1
 10
0.0
 20
0.0
 30
0.0
  0
VERTEX
  5
1AA
  8
0
 62
     2
 10
-191.0
 20
0.0
 30
0.0
  0
VERTEX
  5
1AB
  8
0
 62
     2
 10
-191.0
 20
46.0
 30
0.0
  0
SEQEND
  5
1AC
  8
0
 62
     2
  0
POLYLINE
  5
87
  8
0
 62
     2
 66
     1
 10
0.0
 20
0.0
 30
0.0
  0
VERTEX
  5
1AD
  8
0
 62
     2
 10
-133.0
 20
0.0
 30
0.0
  0
VERTEX
  5
1AE
  8
0
 62
     2
 10
-133.0
 20
46.0
 30
0.0
  0
SEQEND
  5
1AF
  8
0
 62
     2
  0
POLYLINE
  5
88
  8
0
 62
     2
 66
     1
 10
0.0
 20
0.0
 30
0.0
  0
VERTEX
  5
1B0
  8
0
 62
     2
 10
-92.0
 20
26.0
 30
0.0
  0
VERTEX
  5
1B1
  8
0
 62
     2
 10
-92.0
 20
46.0
 30
0.0
  0
SEQEND
  5
1B2
  8
0
 62
     2
  0
POLYLINE
  5
89
  8
0
 62
     2
 66
     1
 10
0.0
 20
0.0
 30
0.0
  0
VERTEX
  5
1B3
  8
0
 62
     2
 10
-69.0
 20
26.0
 30
0.0
  0
VERTEX
  5
1B4
  8
0
 62
     2
 10
-69.0
 20
46.0
 30
0.0
  0
SEQEND
  5
1B5
  8
0
 62
     2
  0
ATTDEF
  5
8A
  8
0
 62
     4
 10
-197.186267
 20
7.0
 30
0.0
 40
2.5
  1

 41
0.7
 51
15.0
  3
Index1:
  2
INDEX1
 70
     0
  0
ATTDEF
  5
8B
  8
0
 62
     4
 10
-190.348743
 20
7.0
 30
0.0
 40
2.5
  1

 41
0.7
 51
15.0
  3
Aenderung1:
  2
A1
 70
     0
  0
ATTDEF
  5
8C
  8
0
 62
     4
 10
-157.348743
 20
7.0
 30
0.0
 40
2.5
  1

 41
0.7
 51
15.0
  3
Datum1:
  2
DATUM1
 70
     0
  0
ATTDEF
  5
8D
  8
0
 62
     4
 10
-144.46499
 20
7.0
 30
0.0
 40
2.5
  1

 41
0.7
 51
15.0
  3
Name1:
  2
NAME1
 70
     0
  0
ATTDEF
  5
8E
  8
0
 62
     4
 10
-197.186267
 20
12.0
 30
0.0
 40
2.5
  1

 41
0.7
 51
15.0
  3
Index2:
  2
INDEX2
 70
     0
  0
ATTDEF
  5
8F
  8
0
 62
     4
 10
-190.348743
 20
12.0
 30
0.0
 40
2.5
  1

 41
0.7
 51
15.0
  3
Aenderung2:
  2
A2
 70
     0
  0
ATTDEF
  5
90
  8
0
 62
     4
 10
-157.348743
 20
12.0
 30
0.0
 40
2.5
  1

 41
0.7
 51
15.0
  3
Datum2:
  2
DATUM2
 70
     0
  0
ATTDEF
  5
91
  8
0
 62
     4
 10
-144.46499
 20
12.0
 30
0.0
 40
2.5
  1

 41
0.7
 51
15.0
  3
Name2
  2
NAME2
 70
     0
  0
ATTDEF
  5
92
  8
0
 62
     4
 10
-197.186267
 20
17.0
 30
0.0
 40
2.5
  1

 41
0.7
 51
15.0
  3
Index3:
  2
INDEX3
 70
     0
  0
ATTDEF
  5
93
  8
0
 62
     4
 10
-190.348743
 20
17.0
 30
0.0
 40
2.5
  1

 41
0.7
 51
15.0
  3
Aenderung3
  2
A3
 70
     0
  0
ATTDEF
  5
94
  8
0
 62
     4
 10
-157.348743
 20
17.0
 30
0.0
 40
2.5
  1

 41
0.7
 51
15.0
  3
Datum3:
  2
DATUM3
 70
     0
  0
ATTDEF
  5
95
  8
0
 62
     4
 10
-144.46499
 20
17.0
 30
0.0
 40
2.5
  1

 41
0.7
 51
15.0
  3
Name3:
  2
NAME3
 70
     0
  0
ATTDEF
  5
96
  8
0
 62
     4
 10
-197.186267
 20
22.0
 30
0.0
 40
2.5
  1

 41
0.7
 51
15.0
  3
Index4:
  2
INDEX4
 70
     0
  0
ATTDEF
  5
97
  8
0
 62
     4
 10
-190.348743
 20
22.0
 30
0.0
 40
2.5
  1

 41
0.7
 51
15.0
  3
Aenderung4:
  2
A4
 70
     0
  0
ATTDEF
  5
98
  8
0
 62
     4
 10
-157.348743
 20
22.0
 30
0.0
 40
2.5
  1

 41
0.7
 51
15.0
  3
Datum4:
  2
DATUM4
 70
     0
  0
ATTDEF
  5
99
  8
0
 62
     4
 10
-144.46499
 20
22.0
 30
0.0
 40
2.5
  1

 41
0.7
 51
15.0
  3
Name4:
  2
NAME4
 70
     0
  0
ATTDEF
  5
9A
  8
0
 62
     4
 10
-197.186267
 20
27.0
 30
0.0
 40
2.5
  1

 41
0.7
 51
15.0
  3
Index5:
  2
INDEX5
 70
     0
  0
ATTDEF
  5
9B
  8
0
 62
     4
 10
-190.348743
 20
27.0
 30
0.0
 40
2.5
  1

 41
0.7
 51
15.0
  3
Aenderung5:
  2
A5
 70
     0
  0
ATTDEF
  5
9C
  8
0
 62
     4
 10
-157.348743
 20
27.0
 30
0.0
 40
2.5
  1

 41
0.7
 51
15.0
  3
Datum5:
  2
DATUM5
 70
     0
  0
ATTDEF
  5
9D
  8
0
 62
     4
 10
-144.46499
 20
27.0
 30
0.0
 40
2.5
  1

 41
0.7
 51
15.0
  3
Name5
  2
NAME5
 70
     0
  0
ATTDEF
  5
9E
  8
0
 62
     4
 10
-197.186267
 20
32.0
 30
0.0
 40
2.5
  1

 41
0.7
 51
15.0
  3
Index6:
  2
INDEX6
 70
     0
  0
ATTDEF
  5
9F
  8
0
 62
     4
 10
-190.348743
 20
32.0
 30
0.0
 40
2.5
  1

 41
0.7
 51
15.0
  3
Aenderung6:
  2
A6
 70
     0
  0
ATTDEF
  5
A0
  8
0
 62
     4
 10
-157.348743
 20
32.0
 30
0.0
 40
2.5
  1

 41
0.7
 51
15.0
  3
Datum6:
  2
DATUM6
 70
     0
  0
ATTDEF
  5
A1
  8
0
 62
     4
 10
-144.46499
 20
32.0
 30
0.0
 40
2.5
  1

 41
0.7
 51
15.0
  3
Name6:
  2
NAME6
 70
     0
  0
ATTDEF
  5
A2
  8
0
 62
     4
 10
-197.186267
 20
37.0
 30
0.0
 40
2.5
  1

 41
0.7
 51
15.0
  3
Index7:
  2
INDEX7
 70
     0
  0
ATTDEF
  5
A3
  8
0
 62
     4
 10
-190.348743
 20
37.0
 30
0.0
 40
2.5
  1

 41
0.7
 51
15.0
  3
Aenderung7:
  2
A7
 70
     0
  0
ATTDEF
  5
A4
  8
0
 62
     4
 10
-157.348743
 20
37.0
 30
0.0
 40
2.5
  1

 41
0.7
 51
15.0
  3
Datum7:
  2
DATUM7
 70
     0
  0
ATTDEF
  5
A5
  8
0
 62
     4
 10
-144.46499
 20
37.0
 30
0.0
 40
2.5
  1

 41
0.7
 51
15.0
  3
Name7:
  2
NAME7
 70
     0
  0
ATTDEF
  5
A6
  8
0
 62
     4
 10
-197.186267
 20
42.0
 30
0.0
 40
2.5
  1

 41
0.7
 51
15.0
  3
Index8:
  2
INDEX8
 70
     0
  0
ATTDEF
  5
A7
  8
0
 62
     4
 10
-190.348743
 20
42.0
 30
0.0
 40
2.5
  1

 41
0.7
 51
15.0
  3
Aenderung8:
  2
A8
 70
     0
  0
ATTDEF
  5
A8
  8
0
 62
     4
 10
-157.348743
 20
42.0
 30
0.0
 40
2.5
  1

 41
0.7
 51
15.0
  3
Datum8:
  2
DATUM8
 70
     0
  0
ATTDEF
  5
A9
  8
0
 62
     4
 10
-144.46499
 20
42.0
 30
0.0
 40
2.5
  1

 41
0.7
 51
15.0
  3
Name8:
  2
NAME8
 70
     0
  0
POLYLINE
  5
AA
  8
0
 62
     2
 66
     1
 10
0.0
 20
0.0
 30
0.0
  0
VERTEX
  5
1B6
  8
0
 62
     2
 10
0.0
 20
0.0
 30
0.0
  0
VERTEX
  5
1B7
  8
0
 62
     2
 10
0.0
 20
46.0
 30
0.0
  0
SEQEND
  5
1B8
  8
0
 62
     2
  0
POLYLINE
  5
AB
  8
0
 62
     2
 66
     1
 10
0.0
 20
0.0
 30
0.0
  0
VERTEX
  5
1B9
  8
0
 62
     2
 10
-200.0
 20
46.0
 30
0.0
  0
VERTEX
  5
1BA
  8
0
 62
     2
 10
-200.0
 20
0.0
 30
0.0
  0
SEQEND
  5
1BB
  8
0
 62
     2
  0
POLYLINE
  5
AC
  8
0
 62
     2
 66
     1
 10
0.0
 20
0.0
 30
0.0
  0
VERTEX
  5
1BC
  8
0
 62
     2
 10
0.0
 20
9.0
 30
0.0
  0
VERTEX
  5
1BD
  8
0
 62
     2
 10
-133.0
 20
9.0
 30
0.0
  0
SEQEND
  5
1BE
  8
0
 62
     2
  0
POLYLINE
  5
AD
  8
0
 62
     2
 66
     1
 10
0.0
 20
0.0
 30
0.0
  0
VERTEX
  5
1BF
  8
0
 62
     2
 10
0.0
 20
18.0
 30
0.0
  0
VERTEX
  5
1C0
  8
0
 62
     2
 10
-51.0
 20
18.0
 30
0.0
  0
SEQEND
  5
1C1
  8
0
 62
     2
  0
POLYLINE
  5
AE
  8
0
 62
     2
 66
     1
 10
0.0
 20
0.0
 30
0.0
  0
VERTEX
  5
1C2
  8
0
 62
     2
 10
0.0
 20
26.0
 30
0.0
  0
VERTEX
  5
1C3
  8
0
 62
     2
 10
-133.0
 20
26.0
 30
0.0
  0
SEQEND
  5
1C4
  8
0
 62
     2
  0
POLYLINE
  5
AF
  8
0
 62
     2
 66
     1
 10
0.0
 20
0.0
 30
0.0
  0
VERTEX
  5
1C5
  8
0
 62
     2
 10
0.0
 20
31.0
 30
0.0
  0
VERTEX
  5
1C6
  8
0
 62
     2
 10
-51.0
 20
31.0
 30
0.0
  0
SEQEND
  5
1C7
  8
0
 62
     2
  0
POLYLINE
  5
B0
  8
0
 62
     2
 66
     1
 10
0.0
 20
0.0
 30
0.0
  0
VERTEX
  5
1C8
  8
0
 62
     2
 10
0.0
 20
36.0
 30
0.0
  0
VERTEX
  5
1C9
  8
0
 62
     2
 10
-51.0
 20
36.0
 30
0.0
  0
SEQEND
  5
1CA
  8
0
 62
     2
  0
POLYLINE
  5
B1
  8
0
 62
     2
 66
     1
 10
0.0
 20
0.0
 30
0.0
  0
VERTEX
  5
1CB
  8
0
 62
     2
 10
0.0
 20
41.0
 30
0.0
  0
VERTEX
  5
1CC
  8
0
 62
     2
 10
-51.0
 20
41.0
 30
0.0
  0
SEQEND
  5
1CD
  8
0
 62
     2
  0
POLYLINE
  5
B2
  8
0
 62
     2
 66
     1
 10
0.0
 20
0.0
 30
0.0
  0
VERTEX
  5
1CE
  8
0
 62
     2
 10
0.0
 20
46.0
 30
0.0
  0
VERTEX
  5
1CF
  8
0
 62
     2
 10
-200.0
 20
46.0
 30
0.0
  0
SEQEND
  5
1D0
  8
0
 62
     2
  0
TEXT
  5
B3
  8
035
 10
517.653158
 20
512.84859
 30
0.0
 40
3.5
  1
  
 41
0.7
 51
15.0
  0
LINE
  5
B4
  8
05
 10
-109.786833
 20
1.991866
 30
0.0
 11
-107.121854
 21
1.991866
 31
0.0
  0
LINE
  5
B6
  8
05
 10
-109.786833
 20
1.991866
 30
0.0
 11
-108.884845
 21
5.721227
 31
0.0
  0
LINE
  5
B7
  8
05
 10
-97.883057
 20
2.941046
 30
0.0
 11
-97.741768
 21
3.525221
 31
0.0
  0
LINE
  5
B8
  8
05
 10
-100.626753
 20
1.985934
 30
0.0
 11
-99.73917
 21
5.655734
 31
0.0
  0
LINE
  5
B9
  8
05
 10
-101.65257
 20
1.991866
 30
0.0
 11
-103.777929
 21
3.44834
 31
0.0
  0
LINE
  5
BA
  8
05
 10
-104.575338
 20
1.991866
 30
0.0
 11
-106.759794
 21
3.488838
 31
0.0
  0
LINE
  5
BB
  8
05
 10
-107.121854
 20
1.991866
 30
0.0
 11
-106.759794
 21
3.488838
 31
0.0
  0
LINE
  5
BC
  8
05
 10
-78.264922
 20
1.991866
 30
0.0
 11
-80.343243
 21
4.257016
 31
0.0
  0
LINE
  5
BD
  8
05
 10
-75.015521
 20
1.991866
 30
0.0
 11
-74.129372
 21
5.655734
 31
0.0
  0
LINE
  5
BE
  8
05
 10
-80.891096
 20
1.991866
 30
0.0
 11
-80.343243
 21
4.257016
 31
0.0
  0
LINE
  5
BF
  8
05
 10
-83.271451
 20
1.991866
 30
0.0
 11
-82.385303
 21
5.655734
 31
0.0
  0
LINE
  5
C0
  8
05
 10
-86.159077
 20
5.655734
 30
0.0
 11
-84.240668
 21
1.991866
 31
0.0
  0
LINE
  5
C1
  8
05
 10
-92.656302
 20
1.991866
 30
0.0
 11
-89.202895
 21
5.655734
 31
0.0
  0
LINE
  5
C2
  8
05
 10
-99.73917
 20
5.655734
 30
0.0
 11
-92.981554
 21
5.655734
 31
0.0
  0
LINE
  5
C3
  8
05
 10
-97.554768
 20
4.298391
 30
0.0
 11
-97.430101
 21
4.813838
 31
0.0
  0
LINE
  5
C4
  8
05
 10
-97.741768
 20
3.525221
 30
0.0
 11
-94.44862
 21
3.525221
 31
0.0
  0
LINE
  5
C5
  8
05
 10
-97.554768
 20
4.298391
 30
0.0
 11
-94.26162
 21
4.298391
 31
0.0
  0
ARC
  5
C6
  8
05
 10
-103.5768
 20
1.048488
 30
0.0
 40
4.603731
 50
69.562986
 51
81.731692
  0
ARC
  5
C7
  8
05
 10
-104.360333
 20
9.695316
 30
0.0
 40
6.274066
 50
275.326278
 51
289.525993
  0
ARC
  5
C8
  8
05
 10
-102.594066
 20
4.972077
 30
0.0
 40
1.232717
 50
286.581886
 51
338.146956
  0
ARC
  5
C9
  8
05
 10
-102.021937
 20
4.683869
 30
0.0
 40
0.597227
 50
340.399744
 51
51.414228
  0
ARC
  5
CA
  8
05
 10
-102.925451
 20
3.563011
 30
0.0
 40
2.0377
 50
51.536856
 51
62.015041
  0
ARC
  5
CB
  8
05
 10
-105.569755
 20
-23.421024
 30
0.0
 40
29.146566
 50
84.676683
 51
90.985976
  0
ARC
  5
CC
  8
05
 10
-105.662755
 20
8.045413
 30
0.0
 40
4.086755
 50
273.844537
 51
284.464628
  0
ARC
  5
CD
  8
05
 10
-105.461356
 20
1.639787
 30
0.0
 40
3.317438
 50
71.64551
 51
85.712788
  0
ARC
  5
CE
  8
05
 10
-105.266143
 20
5.623081
 30
0.0
 40
1.656947
 50
292.130003
 51
304.027207
  0
ARC
  5
CF
  8
05
 10
-104.533103
 20
4.496732
 30
0.0
 40
0.314086
 50
308.183971
 51
68.249048
  0
LINE
  5
D0
  8
05
 10
-106.682865
 20
3.967854
 30
0.0
 11
-106.445819
 21
4.947943
 31
0.0
  0
LINE
  5
D1
  8
05
 10
-106.682865
 20
3.967854
 30
0.0
 11
-105.38874
 21
3.967854
 31
0.0
  0
LINE
  5
D2
  8
05
 10
-106.445819
 20
4.947943
 30
0.0
 11
-105.213357
 21
4.947943
 31
0.0
  0
LINE
  5
D3
  8
05
 10
-108.884845
 20
5.721227
 30
0.0
 11
-106.001611
 21
5.721227
 31
0.0
  0
LINE
  5
D4
  8
05
 10
-93.185176
 20
4.813838
 30
0.0
 11
-92.981554
 21
5.655734
 31
0.0
  0
LINE
  5
D5
  8
05
 10
-97.430101
 20
4.813838
 30
0.0
 11
-93.185176
 21
4.813838
 31
0.0
  0
LINE
  5
D6
  8
05
 10
-94.44862
 20
3.525221
 30
0.0
 11
-94.26162
 21
4.298391
 31
0.0
  0
LINE
  5
D7
  8
05
 10
-77.190213
 20
3.465139
 30
0.0
 11
-76.660393
 21
5.655734
 31
0.0
  0
LINE
  5
D8
  8
05
 10
-81.626596
 20
5.655734
 30
0.0
 11
-81.629003
 21
5.658357
 31
0.0
  0
LINE
  5
D9
  8
05
 10
-76.660393
 20
5.655734
 30
0.0
 11
-74.129372
 21
5.655734
 31
0.0
  0
LINE
  5
DA
  8
05
 10
-77.190213
 20
3.465139
 30
0.0
 11
-79.20013
 21
5.655734
 31
0.0
  0
LINE
  5
DB
  8
05
 10
-82.385303
 20
5.655734
 30
0.0
 11
-79.20013
 21
5.655734
 31
0.0
  0
LINE
  5
DC
  8
05
 10
-89.117244
 20
3.284678
 30
0.0
 11
-87.581879
 21
3.284678
 31
0.0
  0
LINE
  5
DD
  8
05
 10
-89.117244
 20
3.284678
 30
0.0
 11
-88.130196
 21
4.33188
 31
0.0
  0
LINE
  5
DE
  8
05
 10
-88.130196
 20
4.33188
 30
0.0
 11
-87.581879
 21
3.284678
 31
0.0
  0
LINE
  5
DF
  8
05
 10
-89.202895
 20
5.655734
 30
0.0
 11
-86.159077
 21
5.655734
 31
0.0
  0
LINE
  5
E0
  8
05
 10
-90.335794
 20
1.991866
 30
0.0
 11
-89.910781
 21
2.442781
 31
0.0
  0
LINE
  5
E1
  8
05
 10
-100.625318
 20
1.991866
 30
0.0
 11
-93.867702
 21
1.991866
 31
0.0
  0
LINE
  5
E2
  8
05
 10
-97.883057
 20
2.941046
 30
0.0
 11
-93.638132
 21
2.941046
 31
0.0
  0
LINE
  5
E3
  8
05
 10
-104.575338
 20
1.991866
 30
0.0
 11
-101.582882
 21
1.991866
 31
0.0
  0
LINE
  5
E4
  8
05
 10
-92.656302
 20
1.991866
 30
0.0
 11
-90.335794
 21
1.991866
 31
0.0
  0
LINE
  5
E5
  8
05
 10
-93.869137
 20
1.985934
 30
0.0
 11
-93.638132
 21
2.941046
 31
0.0
  0
LINE
  5
E6
  8
05
 10
-78.264922
 20
1.991866
 30
0.0
 11
-75.015521
 21
1.991866
 31
0.0
  0
LINE
  5
E7
  8
05
 10
-83.271451
 20
1.991866
 30
0.0
 11
-80.891096
 21
1.991866
 31
0.0
  0
LINE
  5
E8
  8
05
 10
-89.910781
 20
2.442781
 30
0.0
 11
-87.141059
 21
2.442781
 31
0.0
  0
LINE
  5
E9
  8
05
 10
-87.141059
 20
2.442781
 30
0.0
 11
-86.90496
 21
1.991866
 31
0.0
  0
LINE
  5
EA
  8
05
 10
-86.90496
 20
1.991866
 30
0.0
 11
-84.240668
 21
1.991866
 31
0.0
  0
ENDBLK
  5
EC
  8
0
  0
BLOCK
  8
0
  2
*U3
 70
     1
 10
0.0
 20
0.0
 30
0.0
  3
*U3
  1

  0
SOLID
  5
1E1
  8
025
  6
AUSGEZOGEN
 10
76.212332
 20
203.304674
 30
0.0
 11
74.709763
 21
203.304674
 31
0.0
 12
76.212332
 22
200.169314
 32
0.0
 13
76.212332
 23
200.169314
 33
0.0
  0
SOLID
  5
1E2
  8
025
  6
AUSGEZOGEN
 10
74.709763
 20
200.169314
 30
0.0
 11
76.212332
 21
200.169314
 31
0.0
 12
74.709763
 22
203.304674
 32
0.0
 13
74.709763
 23
203.304674
 33
0.0
  0
SOLID
  5
1E3
  8
025
  6
AUSGEZOGEN
 10
76.212332
 20
200.169314
 30
0.0
 11
74.709763
 21
200.169314
 31
0.0
 12
76.212332
 22
197.033955
 32
0.0
 13
76.212332
 23
197.033955
 33
0.0
  0
SOLID
  5
1E4
  8
025
  6
AUSGEZOGEN
 10
74.709763
 20
197.033955
 30
0.0
 11
76.212332
 21
197.033955
 31
0.0
 12
74.709763
 22
200.169314
 32
0.0
 13
74.709763
 23
200.169314
 33
0.0
  0
ENDBLK
  5
1E6
  8
0
  0
ENDSEC
  0
SECTION
  2
ENTITIES
  0
POLYLINE
  5
1E
  8
RAHMEN
 66
     1
 10
0.0
 20
0.0
 30
0.0
 70
     1
  0
VERTEX
  5
17E
  8
RAHMEN
 10
205.0
 20
5.0
 30
0.0
  0
VERTEX
  5
17F
  8
RAHMEN
 10
205.0
 20
292.0
 30
0.0
  0
VERTEX
  5
180
  8
RAHMEN
 10
5.0
 20
292.0
 30
0.0
  0
VERTEX
  5
181
  8
RAHMEN
 10
5.0
 20
5.0
 30
0.0
  0
SEQEND
  5
182
  8
RAHMEN
  0
INSERT
  5
20
  8
BEM1
 66
     1
  2
ZKOPF-REAN
 10
205.0
 20
5.0
 30
0.0
  0
ATTRIB
  5
21
  8
0
 62
     4
 10
189.833333
 20
42.0
 30
0.0
 40
2.5
  1
Battlogg
  7
SCRIPTS
 72
     1
 11
196.5
 21
42.0
 31
0.0
  2
NAME
 70
     0
  0
ATTRIB
  5
23
  8
0
 62
     4
 10
175.833333
 20
42.0
 30
0.0
 40
2.5
  1
29.01.01
 41
0.7
 51
15.0
 72
     1
 11
180.5
 21
42.0
 31
0.0
  2
DATE
 70
     0
  0
ATTRIB
  5
24
  8
0
 62
     4
 10
124.5
 20
41.0
 30
0.0
 40
2.5
  1

 41
0.7
 51
15.0
 72
     1
 11
124.5
 21
41.0
 31
0.0
  2
WERKSTOFF
 70
     0
  0
ATTRIB
  5
25
  8
0
 62
     2
 10
102.208333
 20
17.5
 30
0.0
 40
5.0
  1
NYS 201
 41
0.7
 51
15.0
 72
     1
 11
113.0
 21
17.5
 31
0.0
  2
BENENNUNG
 70
     0
  0
ATTRIB
  5
26
  8
0
 62
     3
 10
98.197043
 20
26.082191
 30
0.0
 40
3.5
  1
1/4" Phone Plugs
 41
0.7
 51
15.0
 72
     1
 11
115.959543
 21
26.082191
 31
0.0
  2
TEIL
 70
     0
  0
ATTRIB
  5
27
  8
0
 62
     3
 10
169.953947
 20
6.976541
 30
0.0
 40
3.5
  1
3102 ST 22 14
 41
0.7
 51
15.0
 72
     1
 11
184.449781
 21
6.976541
 31
0.0
  2
NUMMER
 70
     0
  0
ATTRIB
  5
28
  8
0
 62
     2
 10
142.100661
 20
39.656056
 30
0.0
 40
5.0
  1
1:1
 41
0.7
 51
15.0
 72
     1
 11
144.433995
 21
39.656056
 31
0.0
  2
MASS
 70
     0
  0
ATTRIB
  5
29
  8
0
 62
     3
 10
144.519299
 20
33.21045
 30
0.0
 40
3.5
  1

 41
0.7
 51
15.0
 72
     1
 11
144.519299
 21
33.21045
 31
0.0
  2
MASS2
 70
     0
  0
ATTRIB
  5
2A
  8
0
 62
     4
 10
124.0
 20
34.0
 30
0.0
 40
2.5
  1

 41
0.7
 51
15.0
 72
     1
 11
124.0
 21
34.0
 31
0.0
  2
TEIL
 70
     0
  0
ATTRIB
  5
2B
  8
0
 62
     3
 10
97.288548
 20
64.004319
 30
0.0
 40
3.5
  1

 41
0.7
 51
15.0
  2
TOL
 70
     0
  0
ATTRIB
  5
2C
  8
0
 62
     3
 10
97.288548
 20
59.004319
 30
0.0
 40
3.5
  1

 41
0.7
 51
15.0
  2
RADIEN
 70
     0
  0
ATTRIB
  5
2D
  8
0
 62
     3
 10
97.288548
 20
54.004319
 30
0.0
 40
3.5
  1

 41
0.7
 51
15.0
  2
FACETTE
 70
     0
  0
ATTRIB
  5
2E
  8
0
 62
     4
 10
7.813732
 20
12.0
 30
0.0
 40
2.5
  1

 41
0.7
 51
15.0
  2
INDEX1
 70
     0
  0
ATTRIB
  5
2F
  8
0
 62
     4
 10
14.651257
 20
12.0
 30
0.0
 40
2.5
  1

 41
0.7
 51
15.0
  2
A1
 70
     0
  0
ATTRIB
  5
30
  8
0
 62
     4
 10
47.651257
 20
12.0
 30
0.0
 40
2.5
  1

 41
0.7
 51
15.0
  2
DATUM1
 70
     0
  0
ATTRIB
  5
31
  8
0
 62
     4
 10
60.53501
 20
12.0
 30
0.0
 40
2.5
  1

 41
0.7
 51
15.0
  2
NAME1
 70
     0
  0
ATTRIB
  5
32
  8
0
 62
     4
 10
7.813732
 20
17.0
 30
0.0
 40
2.5
  1

 41
0.7
 51
15.0
  2
INDEX2
 70
     0
  0
ATTRIB
  5
33
  8
0
 62
     4
 10
14.651257
 20
17.0
 30
0.0
 40
2.5
  1

 41
0.7
 51
15.0
  2
A2
 70
     0
  0
ATTRIB
  5
34
  8
0
 62
     4
 10
47.651257
 20
17.0
 30
0.0
 40
2.5
  1

 41
0.7
 51
15.0
  2
DATUM2
 70
     0
  0
ATTRIB
  5
35
  8
0
 62
     4
 10
60.53501
 20
17.0
 30
0.0
 40
2.5
  1

 41
0.7
 51
15.0
  2
NAME2
 70
     0
  0
ATTRIB
  5
36
  8
0
 62
     4
 10
7.813732
 20
22.0
 30
0.0
 40
2.5
  1

 41
0.7
 51
15.0
  2
INDEX3
 70
     0
  0
ATTRIB
  5
37
  8
0
 62
     4
 10
14.651257
 20
22.0
 30
0.0
 40
2.5
  1

 41
0.7
 51
15.0
  2
A3
 70
     0
  0
ATTRIB
  5
38
  8
0
 62
     4
 10
47.651257
 20
22.0
 30
0.0
 40
2.5
  1

 41
0.7
 51
15.0
  2
DATUM3
 70
     0
  0
ATTRIB
  5
39
  8
0
 62
     4
 10
60.53501
 20
22.0
 30
0.0
 40
2.5
  1

 41
0.7
 51
15.0
  2
NAME3
 70
     0
  0
ATTRIB
  5
3A
  8
0
 62
     4
 10
7.813732
 20
27.0
 30
0.0
 40
2.5
  1

 41
0.7
 51
15.0
  2
INDEX4
 70
     0
  0
ATTRIB
  5
3B
  8
0
 62
     4
 10
14.651257
 20
27.0
 30
0.0
 40
2.5
  1

 41
0.7
 51
15.0
  2
A4
 70
     0
  0
ATTRIB
  5
3C
  8
0
 62
     4
 10
47.651257
 20
27.0
 30
0.0
 40
2.5
  1

 41
0.7
 51
15.0
  2
DATUM4
 70
     0
  0
ATTRIB
  5
3D
  8
0
 62
     4
 10
60.53501
 20
27.0
 30
0.0
 40
2.5
  1

 41
0.7
 51
15.0
  2
NAME4
 70
     0
  0
ATTRIB
  5
3E
  8
0
 62
     4
 10
7.813732
 20
32.0
 30
0.0
 40
2.5
  1

 41
0.7
 51
15.0
  2
INDEX5
 70
     0
  0
ATTRIB
  5
3F
  8
0
 62
     4
 10
14.651257
 20
32.0
 30
0.0
 40
2.5
  1

 41
0.7
 51
15.0
  2
A5
 70
     0
  0
ATTRIB
  5
40
  8
0
 62
     4
 10
47.651257
 20
32.0
 30
0.0
 40
2.5
  1

 41
0.7
 51
15.0
  2
DATUM5
 70
     0
  0
ATTRIB
  5
41
  8
0
 62
     4
 10
60.53501
 20
32.0
 30
0.0
 40
2.5
  1

 41
0.7
 51
15.0
  2
NAME5
 70
     0
  0
ATTRIB
  5
42
  8
0
 62
     4
 10
7.813732
 20
37.0
 30
0.0
 40
2.5
  1

 41
0.7
 51
15.0
  2
INDEX6
 70
     0
  0
ATTRIB
  5
43
  8
0
 62
     4
 10
14.651257
 20
37.0
 30
0.0
 40
2.5
  1

 41
0.7
 51
15.0
  2
A6
 70
     0
  0
ATTRIB
  5
44
  8
0
 62
     4
 10
47.651257
 20
37.0
 30
0.0
 40
2.5
  1

 41
0.7
 51
15.0
  2
DATUM6
 70
     0
  0
ATTRIB
  5
45
  8
0
 62
     4
 10
60.53501
 20
37.0
 30
0.0
 40
2.5
  1

 41
0.7
 51
15.0
  2
NAME6
 70
     0
  0
ATTRIB
  5
46
  8
0
 62
     4
 10
7.813732
 20
42.0
 30
0.0
 40
2.5
  1

 41
0.7
 51
15.0
  2
INDEX7
 70
     0
  0
ATTRIB
  5
47
  8
0
 62
     4
 10
14.651257
 20
42.0
 30
0.0
 40
2.5
  1

 41
0.7
 51
15.0
  2
A7
 70
     0
  0
ATTRIB
  5
48
  8
0
 62
     4
 10
47.651257
 20
42.0
 30
0.0
 40
2.5
  1

 41
0.7
 51
15.0
  2
DATUM7
 70
     0
  0
ATTRIB
  5
49
  8
0
 62
     4
 10
60.53501
 20
42.0
 30
0.0
 40
2.5
  1

 41
0.7
 51
15.0
  2
NAME7
 70
     0
  0
ATTRIB
  5
4A
  8
0
 62
     4
 10
7.813732
 20
47.0
 30
0.0
 40
2.5
  1

 41
0.7
 51
15.0
  2
INDEX8
 70
     0
  0
ATTRIB
  5
4B
  8
0
 62
     4
 10
14.651257
 20
47.0
 30
0.0
 40
2.5
  1

 41
0.7
 51
15.0
  2
A8
 70
     0
  0
ATTRIB
  5
4C
  8
0
 62
     4
 10
47.651257
 20
47.0
 30
0.0
 40
2.5
  1

 41
0.7
 51
15.0
  2
DATUM8
 70
     0
  0
ATTRIB
  5
4D
  8
0
 62
     4
 10
60.53501
 20
47.0
 30
0.0
 40
2.5
  1

 41
0.7
 51
15.0
  2
NAME8
 70
     0
  0
SEQEND
  5
ED
  8
BEM1
  0
POLYLINE
  5
EE
  8
05
 66
     1
 10
0.0
 20
0.0
 30
0.0
  0
VERTEX
  5
1D1
  8
05
 10
97.248291
 20
203.304674
 30
0.0
  0
VERTEX
  5
1D2
  8
05
 10
73.987122
 20
203.304674
 30
0.0
 42
0.251111
  0
VERTEX
  5
1D3
  8
05
 10
73.570023
 20
203.0811
 30
0.0
 42
-0.475269
  0
VERTEX
  5
1D4
  8
05
 10
71.250763
 20
202.855985
 30
0.0
  0
VERTEX
  5
1D5
  8
05
 10
71.041905
 20
203.067017
 30
0.0
 42
0.397878
  0
VERTEX
  5
1D6
  8
05
 10
69.941431
 20
203.103592
 30
0.0
  0
VERTEX
  5
1D7
  8
05
 10
67.47205
 20
200.919674
 30
0.0
 42
0.450577
  0
VERTEX
  5
1D8
  8
05
 10
67.47205
 20
199.418955
 30
0.0
  0
VERTEX
  5
1D9
  8
05
 10
69.941431
 20
197.235037
 30
0.0
 42
0.397878
  0
VERTEX
  5
1DA
  8
05
 10
71.041905
 20
197.271612
 30
0.0
  0
VERTEX
  5
1DB
  8
05
 10
71.250763
 20
197.482644
 30
0.0
 42
-0.475269
  0
VERTEX
  5
1DC
  8
05
 10
73.570023
 20
197.257529
 30
0.0
 42
0.251111
  0
VERTEX
  5
1DD
  8
05
 10
73.987122
 20
197.033955
 30
0.0
  0
VERTEX
  5
1DE
  8
05
 10
97.248291
 20
197.033955
 30
0.0
  0
SEQEND
  5
1DF
  8
05
  0
LINE
  5
EF
  8
MITTE
 10
133.683703
 20
200.169314
 30
0.0
 11
66.310138
 21
200.169314
 31
0.0
  0
LINE
  5
F2
  8
BEM1
 10
67.133955
 20
172.538957
 30
0.0
 11
132.133955
 21
172.538957
 31
0.0
  0
SOLID
  5
F3
  8
BEM1
 10
55.53031
 20
193.478371
 30
0.0
 11
54.363643
 21
193.478371
 31
0.0
 12
54.946976
 22
196.978371
 32
0.0
 13
54.946976
 23
196.978371
 33
0.0
  0
TEXT
  8
0
  40
3
  5
1FC
  62
4
  72
0
  71
0
 10
58.3772
 20
196.232
 30
0.000000
  1
[0.248"]
  0
LINE
  5
F5
  8
BEM1
 10
54.946976
 20
203.304674
 30
0.0
 11
54.946976
 21
191.992009
 31
0.0
  0
LINE
  5
F6
  8
BEM1
 10
67.133955
 20
197.922048
 30
0.0
 11
67.133955
 21
171.684414
 31
0.0
  0
SOLID
  5
F7
  8
BEM1
 10
69.999414
 20
173.016533
 30
0.0
 11
69.999414
 21
172.06138
 31
0.0
 12
67.133955
 22
172.538957
 32
0.0
 13
67.133955
 23
172.538957
 33
0.0
  0
LINE
  5
F8
  8
BEM1
 10
69.121184
 20
203.304674
 30
0.0
 11
60.564659
 21
203.304674
 31
0.0
  0
LINE
  5
F9
  8
BEM1
 10
66.286548
 20
196.978371
 30
0.0
 11
60.736315
 21
196.978371
 31
0.0
  0
LINE
  5
FA
  8
BEM1
 10
54.946976
 20
205.453052
 30
0.0
 11
54.946976
 21
208.253052
 31
0.0
  0
SOLID
  5
FB
  8
BEM1
 10
55.53031
 20
206.804674
 30
0.0
 11
54.363643
 21
206.804674
 31
0.0
 12
54.946976
 22
203.304674
 32
0.0
 13
54.946976
 23
203.304674
 33
0.0
  0
TEXT
  8
0
  40
3.5
  5
1FD
  62
3
  72
0
  71
0
 10
44.9303
 20
194.683
 30
0.000000
  1
%%c6.29
  0
LINE
  5
FD
  8
BEM1
 10
56.273242
 20
196.978371
 30
0.0
 11
54.305337
 21
196.978371
 31
0.0
  0
LINE
  5
FE
  8
BEM1
 10
56.273242
 20
203.304674
 30
0.0
 11
54.305337
 21
203.304674
 31
0.0
  0
LINE
  5
FF
  8
BEM1
 10
69.49611
 20
196.978371
 30
0.0
 11
67.888676
 21
196.978371
 31
0.0
  0
LINE
  5
100
  8
SCHRAFFIERT
 62
     4
 10
76.212332
 20
203.304674
 30
0.0
 11
76.212332
 21
197.033955
 31
0.0
  0
LINE
  5
102
  8
SCHRAFFIERT
 62
     4
 10
74.709763
 20
203.304674
 30
0.0
 11
74.709763
 21
197.033955
 31
0.0
  0
LINE
  5
103
  8
025
 62
     5
 10
73.708051
 20
200.770926
 30
0.0
 11
73.708051
 21
197.420303
 31
0.0
  0
INSERT
  5
105
  8
025
  2
*U3
 10
0.0
 20
0.0
 30
0.0
1001
ACAD
1002
{
1000
R14_HATCH_DATA
1000
105
1011
1.0
1021
0.0
1031
0.0
1021
0.0
1031
0.0
1011
0.0
1021
0.0
1031
0.0
1021
1.0
1031
0.0
1011
0.0
1021
0.0
1031
0.0
1021
0.0
1031
1.0
1040
0.0
1010
0.0
1020
0.0
1030
1.0
1000
SOLID
1070
     1
1070
     1
1071
        2
1071
        7
1070
     0
1070
     1
1071
        4
1040
76.212332
1040
203.304674
1040
74.709763
1040
203.304674
1040
74.709763
1040
200.169314
1040
76.212332
1040
200.169314
1071
        4
1005
EE
1005
102
1005
EF
1005
100
1071
        7
1070
     0
1070
     1
1071
        4
1040
76.212332
1040
200.169314
1040
74.709763
1040
200.169314
1040
74.709763
1040
197.033955
1040
76.212332
1040
197.033955
1071
        4
1005
EF
1005
102
1005
EE
1005
100
1070
     0
1070
     1
1040
0.069744
1071
        2
1040
75.937041
1040
201.856146
1040
0.0
1040
75.590832
1040
198.741622
1040
0.0
1002
}
  0
LINE
  5
106
  8
025
 62
     5
 10
70.417973
 20
199.920824
 30
0.0
 11
70.417973
 21
198.285469
 31
0.0
  0
LINE
  5
107
  8
025
 62
     5
 10
70.417973
 20
202.420772
 30
0.0
 11
70.417973
 21
201.382101
 31
0.0
  0
LINE
  5
108
  8
025
 62
     5
 10
73.708051
 20
202.905596
 30
0.0
 11
73.708051
 21
201.095179
 31
0.0
  0
LINE
  5
109
  8
BEM1
 10
133.576311
 20
194.372739
 30
0.0
 11
146.95313
 21
194.372739
 31
0.0
  0
LINE
  5
10A
  8
BEM1
 10
131.650917
 20
205.96589
 30
0.0
 11
146.95313
 21
205.96589
 31
0.0
  0
INSERT
  5
10B
  8
BEM1
  2
A$C36291E6D
 10
104.937285
 20
194.812927
 30
0.0
  0
LINE
  5
145
  8
010
 10
121.615975
 20
205.96589
 30
0.0
 11
121.615975
 21
194.372739
 31
0.0
  0
LINE
  5
147
  8
010
 10
126.123681
 20
205.96589
 30
0.0
 11
126.123681
 21
194.372739
 31
0.0
  0
INSERT
  5
148
  8
010
 62
     5
  2
*X0
 10
-32.801328
 20
43.962027
 30
0.0
 41
0.667808
 42
0.667808
 43
0.667808
1001
ACAD
1000
HATCH
1002
{
1070
    16
1000
ANSI37,I
1040
12.0
1040
0.0
1002
}
  0
POLYLINE
  5
169
  8
05
 66
     1
 10
0.0
 20
0.0
 30
0.0
 70
     1
  0
VERTEX
  5
1E7
  8
05
 10
97.782537
 20
205.96589
 30
0.0
  0
VERTEX
  5
1E8
  8
05
 10
129.128818
 20
205.96589
 30
0.0
 42
-0.414214
  0
VERTEX
  5
1E9
  8
05
 10
132.133955
 20
202.960753
 30
0.0
  0
VERTEX
  5
1EA
  8
05
 10
132.133955
 20
196.438021
 30
0.0
 42
-0.147401
  0
VERTEX
  5
1EB
  8
05
 10
132.001663
 20
195.875308
 30
0.0
 42
-0.267949
  0
VERTEX
  5
1EC
  8
05
 10
129.399138
 20
194.372739
 30
0.0
  0
VERTEX
  5
1ED
  8
05
 10
97.782537
 20
194.372739
 30
0.0
  0
VERTEX
  5
1EE
  8
05
 10
97.582195
 20
194.573082
 30
0.0
  0
VERTEX
  5
1EF
  8
05
 10
97.582195
 20
205.765547
 30
0.0
  0
SEQEND
  5
1F0
  8
05
  0
TEXT
  8
0
  40
3
  5
1FE
  62
4
  72
0
  71
0
 10
105.511
 20
171.274
 30
0.000000
  1
[2.579"]
  0
TEXT
  5
16B
  8
BEM1
 62
     3
 10
104.013093
 20
181.599803
 30
0.0
 40
3.5
  1
35.5
 41
0.7
 51
15.0
 72
     1
 11
107.688093
 21
183.349803
 31
0.0
 73
     2
  0
LINE
  5
16C
  8
BEM1
 10
97.586386
 20
180.407781
 30
0.0
 11
132.133955
 21
180.407781
 31
0.0
  0
TEXT
  5
16D
  8
BEM1
 62
     3
 10
89.182113
 20
173.624508
 30
0.0
 40
3.5
  1
65.5
 41
0.7
 51
15.0
 72
     1
 11
92.857113
 21
175.374508
 31
0.0
 73
     2
  0
POLYLINE
  5
16E
  8
BEM1
 66
     1
 10
0.0
 20
0.0
 30
0.0
  0
VERTEX
  5
1F1
  8
BEM1
 10
88.198187
 20
176.007733
 30
0.0
 42
-0.402406
  0
VERTEX
  5
1F2
  8
BEM1
 10
86.458679
 20
175.748701
 30
0.0
  0
VERTEX
  5
1F3
  8
BEM1
 10
86.14966
 20
175.968071
 30
0.0
 42
0.4036
  0
VERTEX
  5
1F4
  8
BEM1
 10
84.765104
 20
175.758989
 30
0.0
  0
SEQEND
  5
1F5
  8
BEM1
  0
POLYLINE
  5
16F
  8
BEM1
 66
     1
 10
0.0
 20
0.0
 30
0.0
  0
VERTEX
  5
1F6
  8
BEM1
 10
88.198187
 20
175.182008
 30
0.0
 42
-0.402406
  0
VERTEX
  5
1F7
  8
BEM1
 10
86.458679
 20
174.922976
 30
0.0
  0
VERTEX
  5
1F8
  8
BEM1
 10
86.14966
 20
175.142346
 30
0.0
 42
0.4036
  0
VERTEX
  5
1F9
  8
BEM1
 10
84.765104
 20
174.933264
 30
0.0
  0
SEQEND
  5
1FA
  8
BEM1
  0
LINE
  5
170
  8
BEM1
 10
97.586386
 20
193.176535
 30
0.0
 11
97.586386
 21
179.743089
 31
0.0
  0
SOLID
  5
171
  8
BEM1
 10
100.451844
 20
180.885357
 30
0.0
 11
100.451844
 21
179.930204
 31
0.0
 12
97.586386
 22
180.407781
 32
0.0
 13
97.586386
 23
180.407781
 33
0.0
  0
LINE
  5
172
  8
BEM1
 10
132.133955
 20
194.724184
 30
0.0
 11
132.133955
 21
171.684414
 31
0.0
  0
TEXT
  8
0
  40
3
  5
1FF
  62
4
  72
0
  71
0
 10
120.123
 20
179.143
 30
0.000000
  1
[1.400"]
  0
SOLID
  5
174
  8
BEM1
 10
129.268496
 20
173.016533
 30
0.0
 11
129.268496
 21
172.06138
 31
0.0
 12
132.133955
 22
172.538957
 32
0.0
 13
132.133955
 23
172.538957
 33
0.0
  0
SOLID
  5
175
  8
BEM1
 10
129.268496
 20
180.885357
 30
0.0
 11
129.268496
 21
179.930204
 31
0.0
 12
132.133955
 22
180.407781
 32
0.0
 13
132.133955
 23
180.407781
 33
0.0
  0
LINE
  5
176
  8
05
 10
97.248291
 20
205.16452
 30
0.0
 11
97.248291
 21
195.174109
 31
0.0
  0
LINE
  5
177
  8
05
 10
97.582195
 20
195.174109
 30
0.0
 11
97.248291
 21
195.174109
 31
0.0
  0
LINE
  5
178
  8
05
 10
97.582195
 20
205.16452
 30
0.0
 11
97.248291
 21
205.16452
 31
0.0
  0
TEXT
  8
0
  40
3
  5
200
  62
4
  72
0
  71
0
 10
149.895
 20
196.232
 30
0.000000
  1
[0.492"]
  0
SOLID
  5
17A
  8
BEM1
 10
146.631931
 20
197.238198
 30
0.0
 11
145.676778
 21
197.238198
 31
0.0
 12
146.154355
 22
194.372739
 32
0.0
 13
146.154355
 23
194.372739
 33
0.0
  0
LINE
  5
17B
  8
BEM1
 10
146.154355
 20
205.96589
 30
0.0
 11
146.154355
 21
194.372739
 31
0.0
  0
TEXT
  5
17C
  8
BEM1
 62
     3
 10
144.900686
 20
195.265588
 30
0.0
 40
3.5
  1
%%c12.5
 50
90.0
 41
0.7
 51
15.0
 72
     1
 11
143.150686
 21
199.757254
 31
0.0
 73
     2
  0
SOLID
  5
17D
  8
BEM1
 10
146.631931
 20
203.100431
 30
0.0
 11
145.676778
 21
203.100431
 31
0.0
 12
146.154355
 22
205.96589
 32
0.0
 13
146.154355
 23
205.96589
 33
0.0
  0
ENDSEC
  0
EOF
