  0
SECTION
  2
HEADER
  9
$ACADVER
  1
AC1009
  9
$INSBASE
 10
0.0
 20
0.0
 30
0.0
  9
$EXTMIN
 10
0.0
 20
0.0
 30
0.0
  9
$EXTMAX
 10
210.0
 20
297.0
 30
0.0
  9
$LIMMIN
 10
0.0
 20
0.0
  9
$LIMMAX
 10
410.0
 20
287.0
  9
$ORTHOMODE
 70
     1
  9
$REGENMODE
 70
     1
  9
$FILLMODE
 70
     1
  9
$QTEXTMODE
 70
     0
  9
$MIRRTEXT
 70
     1
  9
$DRAGMODE
 70
     2
  9
$LTSCALE
 40
3.0
  9
$OSMODE
 70
    37
  9
$ATTMODE
 70
     1
  9
$TEXTSIZE
 40
3.5
  9
$TRACEWID
 40
26.0
  9
$TEXTSTYLE
  7
STANDARD
  9
$CLAYER
  8
05
  9
$CELTYPE
  6
BYLAYER
  9
$CECOLOR
 62
   256
  9
$DIMSCALE
 40
1.0
  9
$DIMASZ
 40
3.5
  9
$DIMEXO
 40
1.0
  9
$DIMDLI
 40
8.0
  9
$DIMRND
 40
0.0
  9
$DIMDLE
 40
0.0
  9
$DIMEXE
 40
1.1999999999999991
  9
$DIMTP
 40
0.0
  9
$DIMTM
 40
0.0
  9
$DIMTXT
 40
3.5
  9
$DIMCEN
 40
0.0
  9
$DIMTSZ
 40
0.0
  9
$DIMTOL
 70
     0
  9
$DIMLIM
 70
     0
  9
$DIMTIH
 70
     0
  9
$DIMTOH
 70
     0
  9
$DIMSE1
 70
     0
  9
$DIMSE2
 70
     0
  9
$DIMTAD
 70
     1
  9
$DIMZIN
 70
     0
  9
$DIMBLK
  1

  9
$DIMASO
 70
     0
  9
$DIMSHO
 70
     0
  9
$DIMPOST
  1

  9
$DIMAPOST
  1
"
  9
$DIMALT
 70
     0
  9
$DIMALTD
 70
     3
  9
$DIMALTF
 40
0.039370079
  9
$DIMLFAC
 40
1.0
  9
$DIMTOFL
 70
     0
  9
$DIMTVP
 40
0.0
  9
$DIMTIX
 70
     1
  9
$DIMSOXD
 70
     0
  9
$DIMSAH
 70
     0
  9
$DIMBLK1
  1

  9
$DIMBLK2
  1

  9
$DIMSTYLE
  2
NEUTRIK
  9
$DIMCLRD
 70
     4
  9
$DIMCLRE
 70
     4
  9
$DIMCLRT
 70
     3
  9
$DIMTFAC
 40
1.0
  9
$DIMGAP
 40
0.15
  9
$LUNITS
 70
     2
  9
$LUPREC
 70
     2
  9
$SKETCHINC
 40
0.3878978521428445
  9
$FILLETRAD
 40
0.2
  9
$AUNITS
 70
     0
  9
$AUPREC
 70
     2
  9
$MENU
  1
acad
  9
$ELEVATION
 40
0.0
  9
$PELEVATION
 40
0.0
  9
$THICKNESS
 40
0.0
  9
$LIMCHECK
 70
     0
  9
$BLIPMODE
 70
     0
  9
$CHAMFERA
 40
0.0
  9
$CHAMFERB
 40
0.0
  9
$SKPOLY
 70
     0
  9
$TDCREATE
 40
2450555.5605890048
  9
$TDUPDATE
 40
2455117.5769586689
  9
$TDINDWG
 40
0.8006479051
  9
$TDUSRTIMER
 40
0.8006479051
  9
$USRTIMER
 70
     1
  9
$ANGBASE
 50
0.0
  9
$ANGDIR
 70
     0
  9
$PDMODE
 70
     0
  9
$PDSIZE
 40
0.0
  9
$PLINEWID
 40
0.0
  9
$COORDS
 70
     1
  9
$SPLFRAME
 70
     0
  9
$SPLINETYPE
 70
     6
  9
$SPLINESEGS
 70
     8
  9
$ATTDIA
 70
     0
  9
$ATTREQ
 70
     1
  9
$HANDLING
 70
     1
  9
$HANDSEED
  5
C8C0C
  9
$SURFTAB1
 70
     6
  9
$SURFTAB2
 70
     6
  9
$SURFTYPE
 70
     6
  9
$SURFU
 70
     6
  9
$SURFV
 70
     6
  9
$UCSNAME
  2

  9
$UCSORG
 10
0.0
 20
0.0
 30
0.0
  9
$UCSXDIR
 10
1.0
 20
0.0
 30
0.0
  9
$UCSYDIR
 10
0.0
 20
1.0
 30
0.0
  9
$PUCSNAME
  2

  9
$PUCSORG
 10
0.0
 20
0.0
 30
0.0
  9
$PUCSXDIR
 10
1.0
 20
0.0
 30
0.0
  9
$PUCSYDIR
 10
0.0
 20
1.0
 30
0.0
  9
$USERI1
 70
     0
  9
$USERI2
 70
     0
  9
$USERI3
 70
     0
  9
$USERI4
 70
     0
  9
$USERI5
 70
     0
  9
$USERR1
 40
0.0
  9
$USERR2
 40
0.0
  9
$USERR3
 40
0.0
  9
$USERR4
 40
0.0
  9
$USERR5
 40
0.0
  9
$WORLDVIEW
 70
     1
  9
$SHADEDGE
 70
     3
  9
$SHADEDIF
 70
    70
  9
$TILEMODE
 70
     1
  9
$MAXACTVP
 70
    16
  9
$PLIMCHECK
 70
     0
  9
$PEXTMIN
 10
1.0000000000000000E+020
 20
1.0000000000000000E+020
 30
1.0000000000000000E+020
  9
$PEXTMAX
 10
-1.0000000000000000E+020
 20
-1.0000000000000000E+020
 30
-1.0000000000000000E+020
  9
$PLIMMIN
 10
0.0
 20
0.0
  9
$PLIMMAX
 10
12.0
 20
9.0
  9
$UNITMODE
 70
     0
  9
$VISRETAIN
 70
     0
  9
$PLINEGEN
 70
     0
  9
$PSLTSCALE
 70
     0
  0
ENDSEC
  0
SECTION
  2
TABLES
  0
TABLE
  2
VPORT
 70
     2
  0
VPORT
  2
*ACTIVE
 70
     0
 10
0.0
 20
0.0
 11
1.0
 21
1.0
 12
104.9909702094381
 22
148.497741930507
 13
0.0
 23
0.0
 14
1.0
 24
1.0
 15
2.0
 25
2.0
 16
0.0
 26
0.0
 36
1.0
 17
0.0
 27
0.0
 37
0.0
 40
298.87133415660679
 41
1.9439252336448589
 42
50.0
 43
0.0
 44
0.0
 50
0.0
 51
0.0
 71
     0
 72
   500
 73
     1
 74
     0
 75
     0
 76
     0
 77
     0
 78
     2
  0
ENDTAB
  0
TABLE
  2
LTYPE
 70
     4
  0
LTYPE
  2
AUSGEZOGEN
 70
     0
  3
Ausgezogene Linie
 72
    65
 73
     0
 40
0.0
  0
LTYPE
  2
CENTER
 70
     0
  3
____ _ ____ _ ____ _ ____ _ ____ _ ____ _ ____
 72
    65
 73
     4
 40
2.0
 49
1.25
 49
-0.25
 49
0.25
 49
-0.25
  0
LTYPE
  2
CONTINUOUS
 70
     0
  3
Solid line
 72
    65
 73
     0
 40
0.0
  0
LTYPE
  2
PUNKT
 70
     0
  3
. . . . . . . . . . . . . . . . . . . . . . . .
 72
    65
 73
     2
 40
0.25
 49
0.0
 49
-0.25
  0
ENDTAB
  0
TABLE
  2
LAYER
 70
    10
  0
LAYER
  2
0
 70
     0
 62
     7
  6
AUSGEZOGEN
  0
LAYER
  2
05
 70
     0
 62
     2
  6
AUSGEZOGEN
  0
LAYER
  2
SCHRAFFIERT
 70
     0
 62
     4
  6
AUSGEZOGEN
  0
LAYER
  2
035
 70
     0
 62
     3
  6
AUSGEZOGEN
  0
LAYER
  2
025
 70
     0
 62
     4
  6
AUSGEZOGEN
  0
LAYER
  2
ASHADE
 70
     0
 62
     7
  6
AUSGEZOGEN
  0
LAYER
  2
010
 70
     0
 62
     5
  6
AUSGEZOGEN
  0
LAYER
  2
MITTE
 70
     0
 62
     4
  6
CENTER
  0
LAYER
  2
BEM1
 70
     0
 62
     4
  6
AUSGEZOGEN
  0
LAYER
  2
RAHMEN
 70
     0
 62
     2
  6
AUSGEZOGEN
  0
ENDTAB
  0
TABLE
  2
STYLE
 70
     5
  0
STYLE
  2
STANDARD
 70
     0
 40
0.0
 41
0.7
 50
15.0
 71
     0
 42
3.5
  3
txt
  4

  0
STYLE
  2
HELV
 70
     0
 40
0.0
 41
0.8
 50
10.0
 71
     0
 42
2.0
  3
HELV.SHX
  4

  0
STYLE
  2
ASHADE
 70
     0
 40
0.2
 41
1.0
 50
0.0
 71
     0
 42
3.5
  3
simplex
  4

  0
STYLE
  2
SCRIPTS
 70
     0
 40
0.0
 41
1.0
 50
0.0
 71
     0
 42
5.0
  3
scripts
  4

  0
STYLE
  2
ARIAL
 70
     0
 40
0.0
 41
1.0
 50
0.0
 71
     0
 42
3.5
  3
txt
  4

  0
ENDTAB
  0
TABLE
  2
VIEW
 70
     1
  0
VIEW
  2
OLE1
 70
     0
 40
362.04337985430692
 10
262.08045297997688
 20
181.0216899271534
 41
524.16090595995388
 11
0.0
 21
0.0
 31
1.0
 12
0.0
 22
0.0
 32
0.0
 42
50.0
 43
0.0
 44
0.0
 50
0.0
 71
     0
  0
ENDTAB
  0
TABLE
  2
UCS
 70
     0
  0
ENDTAB
  0
TABLE
  2
APPID
 70
     4
  0
APPID
  2
ACAD
 70
     0
  0
APPID
  2
AVE_RENDER
 70
     0
  0
APPID
  2
ACAD_EXEMPT_FROM_CAD_STANDARDS
 70
     0
  0
APPID
  2
ACAD_PSEXT
 70
     0
  0
ENDTAB
  0
TABLE
  2
DIMSTYLE
 70
     2
  0
DIMSTYLE
  2
STANDARD
 70
     0
  3

  4
"
  5

  6

  7

 40
1.0
 41
1.7
 42
0.5
 43
8.0
 44
0.4
 45
0.0
 46
0.0
 47
0.0
 48
0.0
140
1.7
141
5.0
142
0.0
143
0.039370079
144
1.0
145
0.0
146
1.0
147
0.15
 71
     0
 72
     0
 73
     0
 74
     0
 75
     0
 76
     0
 77
     1
 78
     0
170
     0
171
     3
172
     0
173
     0
174
     0
175
     0
176
   256
177
   256
178
     3
  0
DIMSTYLE
  2
NEUTRIK
 70
     0
  3

  4
"
  5

  6

  7

 40
1.0
 41
3.5
 42
1.0
 43
8.0
 44
1.1999999999999991
 45
0.0
 46
0.0
 47
0.0
 48
0.0
140
3.5
141
0.0
142
0.0
143
0.039370079
144
1.0
145
0.0
146
1.0
147
0.15
 71
     0
 72
     0
 73
     0
 74
     0
 75
     0
 76
     0
 77
     1
 78
     0
170
     0
171
     3
172
     0
173
     0
174
     1
175
     0
176
     4
177
     4
178
     3
  0
ENDTAB
  0
ENDSEC
  0
SECTION
  2
BLOCKS
  0
BLOCK
  8
0
  2
$MODEL_SPACE
 70
     0
 10
0.0
 20
0.0
 30
0.0
  3
$MODEL_SPACE
  1

  0
ENDBLK
  5
C6467
  8
0
  0
BLOCK
 67
     1
  8
0
  2
$PAPER_SPACE
 70
     0
 10
0.0
 20
0.0
 30
0.0
  3
$PAPER_SPACE
  1

  0
ENDBLK
  5
C6465
 67
     1
  8
0
  0
BLOCK
  8
0
  2
AVE_RENDER
 70
     0
 10
0.0
 20
0.0
 30
0.0
  3
AVE_RENDER
  1
AVE_RENDER
  0
ENDBLK
  5
2F
  8
0
  0
BLOCK
  8
0
  2
NT_1
 70
     0
 10
0.0
 20
0.0
 30
0.0
  3
NT_1
  1

  0
ENDBLK
  5
35
  8
0
  0
BLOCK
  8
0
  2
ACAD
 70
     0
 10
0.0
 20
0.0
 30
0.0
  3
ACAD
  1

  0
INSERT
  5
13B32
  8
ASHADE
 62
     1
  2
AVE_RENDER
 10
0.0
 20
0.0
 30
0.0
1001
AVE_RENDER
1002
{
1070
     2
1000
Pref
1070
    40
1070
    20
1070
     1
1070
     0
1000

1070
    10
1070
     0
1070
    30
1040
1.0
1070
     1
1040
0.3
1040
0.7
1040
0.0
1040
10.0
1010
-1.0
1020
-1.0
1030
-1.0
1040
0.3
1070
    49
1002
}
  0
INSERT
  5
13B33
  8
ASHADE
 62
     3
  2
AVE_RENDER
 10
0.0
 20
0.0
 30
0.0
1001
AVE_RENDER
1002
{
1070
     0
1000
Full Opt
1070
     0
1070
     1
1070
     1
1070
     1
1070
     0
1070
     0
1070
     0
1070
     1
1070
     1
1040
0.0001
1040
0.0001
1002
}
  0
INSERT
  5
13B34
  8
ASHADE
 62
     4
  2
AVE_RENDER
 10
0.0
 20
0.0
 30
0.0
1001
AVE_RENDER
1002
{
1070
     0
1000
Quick Opt
1070
     0
1070
     1
1070
     1
1070
     1
1070
     1
1070
     0
1070
     1
1002
}
  0
INSERT
  5
13B38
  8
05
  2
NT_1
 10
98.709341459344387
 20
147.8406513925157
 30
0.0
 41
32.616999881868431
 42
-6.863009327815802
 43
32.616999881868431
  0
ENDBLK
  5
13B61
  8
0
  0
BLOCK
  8
0
  2
ZKOPFC
 70
     2
 10
0.0
 20
0.0
 30
0.0
  3
ZKOPFC
  1

  0
ATTDEF
  5
C6BAC
  8
0
 62
     4
 10
-13.321428571428569
 20
37.0
 30
0.0
 40
2.5
  1
Dobler
  7
SCRIPTS
 72
     1
 11
-8.5
 21
37.0
 31
0.0
  3
Name des Konstrukteurs ?
  2
NAME
 70
     0
  0
POLYLINE
  5
C6BAD
  8
0
 62
     2
 66
     1
 10
0.0
 20
0.0
 30
0.0
  0
VERTEX
  5
C8A89
  8
0
 62
     2
 10
-51.0
 20
0.0
 30
0.0
  0
VERTEX
  5
C8A8A
  8
0
 62
     2
 10
-51.0
 20
46.0
 30
0.0
  0
SEQEND
  5
C8A8B
  8
0
 62
     2
  0
POLYLINE
  5
C6BAE
  8
0
 62
     2
 66
     1
 10
0.0
 20
0.0
 30
0.0
  0
VERTEX
  5
C8A8C
  8
0
 62
     2
 10
-17.0
 20
9.0
 30
0.0
  0
VERTEX
  5
C8A8D
  8
0
 62
     2
 10
-17.0
 20
46.0
 30
0.0
  0
SEQEND
  5
C8A8E
  8
0
 62
     2
  0
POLYLINE
  5
C6BAF
  8
0
 62
     2
 66
     1
 10
0.0
 20
0.0
 30
0.0
  0
VERTEX
  5
C8A8F
  8
0
 62
     2
 10
-32.0
 20
26.0
 30
0.0
  0
VERTEX
  5
C8A90
  8
0
 62
     2
 10
-32.0
 20
46.0
 30
0.0
  0
SEQEND
  5
C8A91
  8
0
 62
     2
  0
POLYLINE
  5
C6BB0
  8
0
 62
     2
 66
     1
 10
0.0
 20
0.0
 30
0.0
  0
VERTEX
  5
C8A92
  8
0
 62
     2
 10
-133.0
 20
41.0
 30
0.0
  0
VERTEX
  5
C8A93
  8
0
 62
     2
 10
-92.0
 20
41.0
 30
0.0
  0
SEQEND
  5
C8A94
  8
0
 62
     2
  0
POLYLINE
  5
C6BB1
  8
0
 62
     2
 66
     1
 10
0.0
 20
0.0
 30
0.0
  0
VERTEX
  5
C8A95
  8
0
 62
     2
 10
-145.0
 20
0.0
 30
0.0
  0
VERTEX
  5
C8A96
  8
0
 62
     2
 10
-145.0
 20
46.0
 30
0.0
  0
SEQEND
  5
C8A97
  8
0
 62
     2
  0
POLYLINE
  5
C6BB2
  8
0
 62
     2
 66
     1
 10
0.0
 20
0.0
 30
0.0
  0
VERTEX
  5
C8A98
  8
0
 62
     2
 10
-158.0
 20
0.0
 30
0.0
  0
VERTEX
  5
C8A99
  8
0
 62
     2
 10
-158.0
 20
46.0
 30
0.0
  0
SEQEND
  5
C8A9A
  8
0
 62
     2
  0
LINE
  5
C6BB3
  8
0
 62
     2
 10
-200.0
 20
6.0
 30
0.0
 11
-133.0
 21
6.0
 31
0.0
  0
POLYLINE
  5
C6BB4
  8
0
 62
     4
 66
     1
 10
0.0
 20
0.0
 30
0.0
  0
VERTEX
  5
C8A9B
  8
0
 62
     4
 10
-200.0
 20
11.0
 30
0.0
  0
VERTEX
  5
C8A9C
  8
0
 62
     4
 10
-133.0
 20
11.0
 30
0.0
  0
SEQEND
  5
C8A9D
  8
0
 62
     4
  0
POLYLINE
  5
C6BB5
  8
0
 62
     4
 66
     1
 10
0.0
 20
0.0
 30
0.0
  0
VERTEX
  5
C8A9E
  8
0
 62
     4
 10
-200.0
 20
16.0
 30
0.0
  0
VERTEX
  5
C8A9F
  8
0
 62
     4
 10
-133.0
 20
16.0
 30
0.0
  0
SEQEND
  5
C8AA0
  8
0
 62
     4
  0
POLYLINE
  5
C6BB6
  8
0
 62
     4
 66
     1
 10
0.0
 20
0.0
 30
0.0
  0
VERTEX
  5
C8AA1
  8
0
 62
     4
 10
-200.0
 20
21.0
 30
0.0
  0
VERTEX
  5
C8AA2
  8
0
 62
     4
 10
-133.0
 20
21.0
 30
0.0
  0
SEQEND
  5
C8AA3
  8
0
 62
     4
  0
POLYLINE
  5
C6BB7
  8
0
 62
     4
 66
     1
 10
0.0
 20
0.0
 30
0.0
  0
VERTEX
  5
C8AA4
  8
0
 62
     4
 10
-200.0
 20
26.0
 30
0.0
  0
VERTEX
  5
C8AA5
  8
0
 62
     4
 10
-133.0
 20
26.0
 30
0.0
  0
SEQEND
  5
C8AA6
  8
0
 62
     4
  0
POLYLINE
  5
C6BB8
  8
0
 62
     4
 66
     1
 10
0.0
 20
0.0
 30
0.0
  0
VERTEX
  5
C8AA7
  8
0
 62
     4
 10
-200.0
 20
31.0
 30
0.0
  0
VERTEX
  5
C8AA8
  8
0
 62
     4
 10
-133.0
 20
31.0
 30
0.0
  0
SEQEND
  5
C8AA9
  8
0
 62
     4
  0
POLYLINE
  5
C6BB9
  8
0
 62
     4
 66
     1
 10
0.0
 20
0.0
 30
0.0
  0
VERTEX
  5
C8AAA
  8
0
 62
     4
 10
-200.0
 20
36.0
 30
0.0
  0
VERTEX
  5
C8AAB
  8
0
 62
     4
 10
-133.0
 20
36.0
 30
0.0
  0
SEQEND
  5
C8AAC
  8
0
 62
     4
  0
POLYLINE
  5
C6BBA
  8
0
 62
     4
 66
     1
 10
0.0
 20
0.0
 30
0.0
  0
VERTEX
  5
C8AAD
  8
0
 62
     4
 10
-200.0
 20
41.0
 30
0.0
  0
VERTEX
  5
C8AAE
  8
0
 62
     4
 10
-133.0
 20
41.0
 30
0.0
  0
SEQEND
  5
C8AAF
  8
0
 62
     4
  0
TEXT
  5
C6BBB
  8
0
 62
     4
 10
-50.0
 20
6.0
 30
0.0
 40
1.5
  1
Zeichn. Nr.
 51
15.0
  0
TEXT
  5
C6BBC
  8
0
 62
     4
 10
-50.0
 20
23.0
 30
0.0
 40
1.5
  1
Ersetzt durch:         Blatt
 51
15.0
  0
TEXT
  5
C6BBD
  8
0
 62
     4
 10
-50.0
 20
38.0
 30
0.0
 40
1.5
  1
Gezeichnet
 51
15.0
  0
TEXT
  5
C6BBE
  8
0
 62
     4
 10
-50.0
 20
27.0
 30
0.0
 40
1.5
  1
Gesehen
 51
15.0
  0
TEXT
  5
C6BBF
  8
0
 62
     4
 10
-31.0
 20
42.0
 30
0.0
 40
1.5
  1
Datum     Name
 51
15.0
  0
TEXT
  5
C6BC0
  8
0
 62
     4
 10
-91.0
 20
42.0
 30
0.0
 40
1.5
  1
Werkstoff:      Massstab:
 51
15.0
  0
TEXT
  5
C6BC1
  8
0
 62
     4
 10
-132.0
 20
23.0
 30
0.0
 40
1.5
  1
Benennung:
 51
15.0
  0
LINE
  5
C6BC2
  8
0
 62
     2
 10
-133.0
 20
33.0
 30
0.0
 11
-92.0
 21
33.0
 31
0.0
  0
TEXT
  5
C6BC3
  8
0
 62
     4
 10
-132.0
 20
39.0
 30
0.0
 40
1.5
  1
*)Lieferant darf ohne 
 51
15.0
  0
TEXT
  5
C6BC4
  8
0
 62
     4
 10
-132.0
 20
36.5
 30
0.0
 40
1.5
  1
 Ruecksprache nicht 
 51
15.0
  0
TEXT
  5
C6BC5
  8
0
 62
     4
 10
-132.0
 20
34.0
 30
0.0
 40
1.5
  1
 geaendert werden
 51
15.0
  0
TEXT
  5
C6BC6
  8
0
 62
     4
 10
-132.0
 20
30.0
 30
0.0
 40
1.5
  1
Zeichnung urheberrechtlich
 51
15.0
  0
TEXT
  5
C6BC7
  8
0
 62
     4
 10
-132.0
 20
27.5
 30
0.0
 40
1.5
  1
geschuetzt (DIN 34) (C)
 51
15.0
  0
TEXT
  5
C6BC8
  8
0
 62
     4
 10
-50.0
 20
32.0
 30
0.0
 40
1.5
  1
Geprueft
 51
15.0
  0
TEXT
  5
C6BC9
  8
0
 62
     4
 10
-50.0
 20
15.0
 30
0.0
 40
1.5
  1
Ersatz fuer:           von  Blatt
 51
15.0
  0
TEXT
  5
C6BCA
  8
0
 62
     4
 10
-197.0
 20
1.0
 30
0.0
 40
1.5
  1
Ind.  Aenderung             Datum    Name
 51
15.0
  0
ATTDEF
  5
C6BCB
  8
0
 62
     4
 10
-28.875
 20
37.0
 30
0.0
 40
2.5
  1
01.10.91
 41
0.7
 51
15.0
 72
     1
 11
-24.5
 21
37.0
 31
0.0
  3
Datum der Zeichnung ?
  2
DATE
 70
     0
  0
ATTDEF
  5
C6BCC
  8
0
 62
     4
 10
-80.5
 20
36.0
 30
0.0
 40
2.5
  1

 41
0.7
 51
15.0
 72
     1
 11
-80.5
 21
36.0
 31
0.0
  3
Aus welchem Werkstoff ?
  2
WERKSTOFF
 70
     0
  0
ATTDEF
  5
C6BCD
  8
0
 62
     2
 10
-92.0
 20
12.5
 30
0.0
 40
5.0
  1

 41
0.7
 51
15.0
 72
     1
 11
-92.0
 21
12.5
 31
0.0
  3
Zeichnungsname ?
  2
BENENNUNG
 70
     0
  0
ATTDEF
  5
C6BCE
  8
0
 62
     3
 10
-90.265456601878626
 20
21.082191450526931
 30
0.0
 40
3.5
  1
()
 41
0.7
 51
15.0
 72
     1
 11
-89.040456601878617
 21
21.082191450526931
 31
0.0
  3
Zu welchem Produkt ?
  2
TEIL
 70
     0
  0
ATTDEF
  5
C6BCF
  8
0
 62
     3
 10
-20.550219082576412
 20
1.9765410165377939
 30
0.0
 40
3.5
  1

 41
0.7
 51
15.0
 72
     1
 11
-20.550219082576412
 21
1.9765410165377939
 31
0.0
  3
Zeichnungsnummer ?
  2
NUMMER
 70
     0
  0
ATTDEF
  5
C6BD0
  8
0
 62
     2
 10
-63.482671637476102
 20
34.656056232934532
 30
0.0
 40
5.0
  1
5:1
 41
0.7
 51
15.0
 72
     1
 11
-60.566004970809438
 21
34.656056232934532
 31
0.0
  3
Hauptmassstab:
  2
MASS
 70
     0
  0
ATTDEF
  5
C6BD1
  8
0
 62
     3
 10
-60.480700945980033
 20
28.210450539175302
 30
0.0
 40
3.5
  1

 41
0.7
 51
15.0
 72
     1
 11
-60.480700945980033
 21
28.210450539175302
 31
0.0
  3
Nebenmassstab:
  2
MASS2
 70
     0
  0
ATTDEF
  5
C6BD2
  8
0
 62
     4
 10
-81.0
 20
29.0
 30
0.0
 40
2.5
  1

 41
0.7
 51
15.0
 72
     1
 11
-81.0
 21
29.0
 31
0.0
  3
Werkstoffzusatz:
  2
TEIL
 70
     0
  0
ATTDEF
  5
C6BD3
  8
0
 62
     3
 10
-107.7114519405618
 20
59.004318747429437
 30
0.0
 40
3.5
  1
Freimasstoleranzen %%p0.1
 41
0.7
 51
15.0
  3
Freimasstoleranzen:
  2
TOL
 70
     0
  0
ATTDEF
  5
C6BD4
  8
0
 62
     3
 10
-107.7114519405618
 20
54.004318747429437
 30
0.0
 40
3.5
  1
nicht bemasste Radien R=0.2
 41
0.7
 51
15.0
  3
Nicht bemasste Radien:
  2
RADIEN
 70
     0
  0
ATTDEF
  5
C6BD5
  8
0
 62
     3
 10
-107.7114519405618
 20
49.004318747429437
 30
0.0
 40
3.5
  1
nicht bemasste Facetten 0.5 x 45%%D
 41
0.7
 51
15.0
  3
nicht bemasste Facetten:
  2
FACETTE
 70
     0
  0
POLYLINE
  5
C6BD6
  8
0
 62
     2
 66
     1
 10
0.0
 20
0.0
 30
0.0
  0
VERTEX
  5
C8AB0
  8
0
 62
     2
 10
-191.0
 20
0.0
 30
0.0
  0
VERTEX
  5
C8AB1
  8
0
 62
     2
 10
-191.0
 20
46.0
 30
0.0
  0
SEQEND
  5
C8AB2
  8
0
 62
     2
  0
POLYLINE
  5
C6BD7
  8
0
 62
     2
 66
     1
 10
0.0
 20
0.0
 30
0.0
  0
VERTEX
  5
C8AB3
  8
0
 62
     2
 10
-133.0
 20
0.0
 30
0.0
  0
VERTEX
  5
C8AB4
  8
0
 62
     2
 10
-133.0
 20
46.0
 30
0.0
  0
SEQEND
  5
C8AB5
  8
0
 62
     2
  0
POLYLINE
  5
C6BD8
  8
0
 62
     2
 66
     1
 10
0.0
 20
0.0
 30
0.0
  0
VERTEX
  5
C8AB6
  8
0
 62
     2
 10
-92.0
 20
26.0
 30
0.0
  0
VERTEX
  5
C8AB7
  8
0
 62
     2
 10
-92.0
 20
46.0
 30
0.0
  0
SEQEND
  5
C8AB8
  8
0
 62
     2
  0
POLYLINE
  5
C6BD9
  8
0
 62
     2
 66
     1
 10
0.0
 20
0.0
 30
0.0
  0
VERTEX
  5
C8AB9
  8
0
 62
     2
 10
-69.0
 20
26.0
 30
0.0
  0
VERTEX
  5
C8ABA
  8
0
 62
     2
 10
-69.0
 20
46.0
 30
0.0
  0
SEQEND
  5
C8ABB
  8
0
 62
     2
  0
ATTDEF
  5
C6BDA
  8
0
 62
     4
 10
-197.1862672583826
 20
7.0
 30
0.0
 40
2.5
  1

 41
0.7
 51
15.0
  3
Index1:
  2
INDEX1
 70
     0
  0
ATTDEF
  5
C6BDB
  8
0
 62
     4
 10
-190.34874260355031
 20
7.0
 30
0.0
 40
2.5
  1

 41
0.7
 51
15.0
  3
Aenderung1:
  2
A1
 70
     0
  0
ATTDEF
  5
C6BDC
  8
0
 62
     4
 10
-157.34874260355031
 20
7.0
 30
0.0
 40
2.5
  1

 41
0.7
 51
15.0
  3
Datum1:
  2
DATUM1
 70
     0
  0
ATTDEF
  5
C6BDD
  8
0
 62
     4
 10
-144.46499013806701
 20
7.0
 30
0.0
 40
2.5
  1

 41
0.7
 51
15.0
  3
Name1:
  2
NAME1
 70
     0
  0
ATTDEF
  5
C6BDE
  8
0
 62
     4
 10
-197.1862672583826
 20
12.0
 30
0.0
 40
2.5
  1

 41
0.7
 51
15.0
  3
Index2:
  2
INDEX2
 70
     0
  0
ATTDEF
  5
C6BDF
  8
0
 62
     4
 10
-190.34874260355031
 20
12.0
 30
0.0
 40
2.5
  1

 41
0.7
 51
15.0
  3
Aenderung2:
  2
A2
 70
     0
  0
ATTDEF
  5
C6BE0
  8
0
 62
     4
 10
-157.34874260355031
 20
12.0
 30
0.0
 40
2.5
  1

 41
0.7
 51
15.0
  3
Datum2:
  2
DATUM2
 70
     0
  0
ATTDEF
  5
C6BE1
  8
0
 62
     4
 10
-144.46499013806701
 20
12.0
 30
0.0
 40
2.5
  1

 41
0.7
 51
15.0
  3
Name2
  2
NAME2
 70
     0
  0
ATTDEF
  5
C6BE2
  8
0
 62
     4
 10
-197.1862672583826
 20
17.0
 30
0.0
 40
2.5
  1

 41
0.7
 51
15.0
  3
Index3:
  2
INDEX3
 70
     0
  0
ATTDEF
  5
C6BE3
  8
0
 62
     4
 10
-190.34874260355031
 20
17.0
 30
0.0
 40
2.5
  1

 41
0.7
 51
15.0
  3
Aenderung3
  2
A3
 70
     0
  0
ATTDEF
  5
C6BE4
  8
0
 62
     4
 10
-157.34874260355031
 20
17.0
 30
0.0
 40
2.5
  1

 41
0.7
 51
15.0
  3
Datum3:
  2
DATUM3
 70
     0
  0
ATTDEF
  5
C6BE5
  8
0
 62
     4
 10
-144.46499013806701
 20
17.0
 30
0.0
 40
2.5
  1

 41
0.7
 51
15.0
  3
Name3:
  2
NAME3
 70
     0
  0
ATTDEF
  5
C6BE6
  8
0
 62
     4
 10
-197.1862672583826
 20
22.0
 30
0.0
 40
2.5
  1

 41
0.7
 51
15.0
  3
Index4:
  2
INDEX4
 70
     0
  0
ATTDEF
  5
C6BE7
  8
0
 62
     4
 10
-190.34874260355031
 20
22.0
 30
0.0
 40
2.5
  1

 41
0.7
 51
15.0
  3
Aenderung4:
  2
A4
 70
     0
  0
ATTDEF
  5
C6BE8
  8
0
 62
     4
 10
-157.34874260355031
 20
22.0
 30
0.0
 40
2.5
  1

 41
0.7
 51
15.0
  3
Datum4:
  2
DATUM4
 70
     0
  0
ATTDEF
  5
C6BE9
  8
0
 62
     4
 10
-144.46499013806701
 20
22.0
 30
0.0
 40
2.5
  1

 41
0.7
 51
15.0
  3
Name4:
  2
NAME4
 70
     0
  0
ATTDEF
  5
C6BEA
  8
0
 62
     4
 10
-197.1862672583826
 20
27.0
 30
0.0
 40
2.5
  1

 41
0.7
 51
15.0
  3
Index5:
  2
INDEX5
 70
     0
  0
ATTDEF
  5
C6BEB
  8
0
 62
     4
 10
-190.34874260355031
 20
27.0
 30
0.0
 40
2.5
  1

 41
0.7
 51
15.0
  3
Aenderung5:
  2
A5
 70
     0
  0
ATTDEF
  5
C6BEC
  8
0
 62
     4
 10
-157.34874260355031
 20
27.0
 30
0.0
 40
2.5
  1

 41
0.7
 51
15.0
  3
Datum5:
  2
DATUM5
 70
     0
  0
ATTDEF
  5
C6BED
  8
0
 62
     4
 10
-144.46499013806701
 20
27.0
 30
0.0
 40
2.5
  1

 41
0.7
 51
15.0
  3
Name5
  2
NAME5
 70
     0
  0
ATTDEF
  5
C6BEE
  8
0
 62
     4
 10
-197.1862672583826
 20
32.0
 30
0.0
 40
2.5
  1

 41
0.7
 51
15.0
  3
Index6:
  2
INDEX6
 70
     0
  0
ATTDEF
  5
C6BEF
  8
0
 62
     4
 10
-190.34874260355031
 20
32.0
 30
0.0
 40
2.5
  1

 41
0.7
 51
15.0
  3
Aenderung6:
  2
A6
 70
     0
  0
ATTDEF
  5
C6BF0
  8
0
 62
     4
 10
-157.34874260355031
 20
32.0
 30
0.0
 40
2.5
  1

 41
0.7
 51
15.0
  3
Datum6:
  2
DATUM6
 70
     0
  0
ATTDEF
  5
C6BF1
  8
0
 62
     4
 10
-144.46499013806701
 20
32.0
 30
0.0
 40
2.5
  1

 41
0.7
 51
15.0
  3
Name6:
  2
NAME6
 70
     0
  0
ATTDEF
  5
C6BF2
  8
0
 62
     4
 10
-197.1862672583826
 20
37.0
 30
0.0
 40
2.5
  1

 41
0.7
 51
15.0
  3
Index7:
  2
INDEX7
 70
     0
  0
ATTDEF
  5
C6BF3
  8
0
 62
     4
 10
-190.34874260355031
 20
37.0
 30
0.0
 40
2.5
  1

 41
0.7
 51
15.0
  3
Aenderung7:
  2
A7
 70
     0
  0
ATTDEF
  5
C6BF4
  8
0
 62
     4
 10
-157.34874260355031
 20
37.0
 30
0.0
 40
2.5
  1

 41
0.7
 51
15.0
  3
Datum7:
  2
DATUM7
 70
     0
  0
ATTDEF
  5
C6BF5
  8
0
 62
     4
 10
-144.46499013806701
 20
37.0
 30
0.0
 40
2.5
  1

 41
0.7
 51
15.0
  3
Name7:
  2
NAME7
 70
     0
  0
ATTDEF
  5
C6BF6
  8
0
 62
     4
 10
-197.1862672583826
 20
42.0
 30
0.0
 40
2.5
  1

 41
0.7
 51
15.0
  3
Index8:
  2
INDEX8
 70
     0
  0
ATTDEF
  5
C6BF7
  8
0
 62
     4
 10
-190.34874260355031
 20
42.0
 30
0.0
 40
2.5
  1

 41
0.7
 51
15.0
  3
Aenderung8:
  2
A8
 70
     0
  0
ATTDEF
  5
C6BF8
  8
0
 62
     4
 10
-157.34874260355031
 20
42.0
 30
0.0
 40
2.5
  1

 41
0.7
 51
15.0
  3
Datum8:
  2
DATUM8
 70
     0
  0
ATTDEF
  5
C6BF9
  8
0
 62
     4
 10
-144.46499013806701
 20
42.0
 30
0.0
 40
2.5
  1

 41
0.7
 51
15.0
  3
Name8:
  2
NAME8
 70
     0
  0
POLYLINE
  5
C6BFA
  8
0
 62
     2
 66
     1
 10
0.0
 20
0.0
 30
0.0
  0
VERTEX
  5
C8ABC
  8
0
 62
     2
 10
0.0
 20
0.0
 30
0.0
  0
VERTEX
  5
C8ABD
  8
0
 62
     2
 10
0.0
 20
46.0
 30
0.0
  0
SEQEND
  5
C8ABE
  8
0
 62
     2
  0
POLYLINE
  5
C6BFB
  8
0
 62
     2
 66
     1
 10
0.0
 20
0.0
 30
0.0
  0
VERTEX
  5
C8ABF
  8
0
 62
     2
 10
-200.0
 20
46.0
 30
0.0
  0
VERTEX
  5
C8AC0
  8
0
 62
     2
 10
-200.0
 20
0.0
 30
0.0
  0
SEQEND
  5
C8AC1
  8
0
 62
     2
  0
POLYLINE
  5
C6BFC
  8
0
 62
     2
 66
     1
 10
0.0
 20
0.0
 30
0.0
  0
VERTEX
  5
C8AC2
  8
0
 62
     2
 10
0.0
 20
9.0
 30
0.0
  0
VERTEX
  5
C8AC3
  8
0
 62
     2
 10
-133.0
 20
9.0
 30
0.0
  0
SEQEND
  5
C8AC4
  8
0
 62
     2
  0
POLYLINE
  5
C6BFD
  8
0
 62
     2
 66
     1
 10
0.0
 20
0.0
 30
0.0
  0
VERTEX
  5
C8AC5
  8
0
 62
     2
 10
0.0
 20
18.0
 30
0.0
  0
VERTEX
  5
C8AC6
  8
0
 62
     2
 10
-51.0
 20
18.0
 30
0.0
  0
SEQEND
  5
C8AC7
  8
0
 62
     2
  0
POLYLINE
  5
C6BFE
  8
0
 62
     2
 66
     1
 10
0.0
 20
0.0
 30
0.0
  0
VERTEX
  5
C8AC8
  8
0
 62
     2
 10
0.0
 20
26.0
 30
0.0
  0
VERTEX
  5
C8AC9
  8
0
 62
     2
 10
-133.0
 20
26.0
 30
0.0
  0
SEQEND
  5
C8ACA
  8
0
 62
     2
  0
POLYLINE
  5
C6BFF
  8
0
 62
     2
 66
     1
 10
0.0
 20
0.0
 30
0.0
  0
VERTEX
  5
C8ACB
  8
0
 62
     2
 10
0.0
 20
31.0
 30
0.0
  0
VERTEX
  5
C8ACC
  8
0
 62
     2
 10
-51.0
 20
31.0
 30
0.0
  0
SEQEND
  5
C8ACD
  8
0
 62
     2
  0
POLYLINE
  5
C6C00
  8
0
 62
     2
 66
     1
 10
0.0
 20
0.0
 30
0.0
  0
VERTEX
  5
C8ACE
  8
0
 62
     2
 10
0.0
 20
36.0
 30
0.0
  0
VERTEX
  5
C8ACF
  8
0
 62
     2
 10
-51.0
 20
36.0
 30
0.0
  0
SEQEND
  5
C8AD0
  8
0
 62
     2
  0
POLYLINE
  5
C6C01
  8
0
 62
     2
 66
     1
 10
0.0
 20
0.0
 30
0.0
  0
VERTEX
  5
C8AD1
  8
0
 62
     2
 10
0.0
 20
41.0
 30
0.0
  0
VERTEX
  5
C8AD2
  8
0
 62
     2
 10
-51.0
 20
41.0
 30
0.0
  0
SEQEND
  5
C8AD3
  8
0
 62
     2
  0
POLYLINE
  5
C6C02
  8
0
 62
     2
 66
     1
 10
0.0
 20
0.0
 30
0.0
  0
VERTEX
  5
C8AD4
  8
0
 62
     2
 10
0.0
 20
46.0
 30
0.0
  0
VERTEX
  5
C8AD5
  8
0
 62
     2
 10
-200.0
 20
46.0
 30
0.0
  0
SEQEND
  5
C8AD6
  8
0
 62
     2
  0
TEXT
  5
C6C03
  8
035
 10
517.65315784783218
 20
512.84858999021753
 30
0.0
 40
3.5
  1
  
 41
0.7
 51
15.0
  0
LINE
  5
C6C04
  8
035
 10
-128.75556832048619
 20
3.2089522248458731
 30
0.0
 11
-126.70616955508621
 21
3.2089522248458731
 31
0.0
  0
LINE
  5
C6C05
  8
035
 10
-128.094709021699
 20
6.1898958836096174
 30
0.0
 11
-125.67269229895351
 21
6.1898958836096174
 31
0.0
  0
LINE
  5
C6C06
  8
035
 10
-128.75556832048619
 20
3.2089522248458731
 30
0.0
 11
-128.094709021699
 21
6.1898958836096174
 31
0.0
  0
LINE
  5
C6C07
  8
035
 10
-126.70616955508621
 20
3.2089522248458731
 30
0.0
 11
-126.33443619951839
 21
4.8857330329004274
 31
0.0
  0
LINE
  5
C6C08
  8
035
 10
-122.1415995776042
 20
3.2089522248458731
 30
0.0
 11
-121.480740278817
 21
6.1898958836096174
 31
0.0
  0
LINE
  5
C6C09
  8
035
 10
-123.8192649874365
 20
4.8857330329004611
 30
0.0
 11
-123.53013904421699
 21
6.1898958836096174
 31
0.0
  0
LINE
  5
C6C0A
  8
035
 10
-126.33443619951839
 20
4.8857330329004611
 30
0.0
 11
-124.47046181101339
 21
3.2089522248458731
 31
0.0
  0
LINE
  5
C6C0B
  8
035
 10
-125.67269229895351
 20
6.1898958836096174
 30
0.0
 11
-123.8192649874365
 21
4.8857330329004611
 31
0.0
  0
LINE
  5
C6C0C
  8
035
 10
-123.53013904421699
 20
6.1898958836096174
 30
0.0
 11
-121.480740278817
 21
6.1898958836096174
 31
0.0
  0
LINE
  5
C6C0D
  8
035
 10
-124.47046181101339
 20
3.2089522248458731
 30
0.0
 11
-122.1415995776042
 21
3.2089522248458731
 31
0.0
  0
LINE
  5
C6C0E
  8
035
 10
-121.1169001949041
 20
3.2089522248458731
 30
0.0
 11
-120.4560408961169
 21
6.1898958836096174
 31
0.0
  0
LINE
  5
C6C0F
  8
035
 10
-118.9504523853178
 20
3.736926343802164
 30
0.0
 11
-118.77564378256569
 21
4.5254369947496018
 31
0.0
  0
LINE
  5
C6C10
  8
035
 10
-115.5152366557929
 20
4.5254369947496018
 30
0.0
 11
-115.4380926508824
 21
4.8734111137059379
 31
0.0
  0
LINE
  5
C6C11
  8
035
 10
-115.5276308347222
 20
3.2089522248458731
 30
0.0
 11
-115.410581790536
 21
3.736926343802164
 31
0.0
  0
LINE
  5
C6C12
  8
035
 10
-121.1169001949041
 20
3.2089522248458731
 30
0.0
 11
-115.5276308347222
 21
3.2089522248458731
 31
0.0
  0
LINE
  5
C6C13
  8
035
 10
-120.4560408961169
 20
6.1898958836096174
 30
0.0
 11
-114.8667715359349
 21
6.1898958836096174
 31
0.0
  0
LINE
  5
C6C14
  8
035
 10
-118.6984997776553
 20
4.8734111137059379
 30
0.0
 11
-118.52369117490301
 21
5.6619217646532061
 31
0.0
  0
LINE
  5
C6C15
  8
035
 10
-114.9838205801212
 20
5.6619217646532229
 30
0.0
 11
-114.8667715359349
 21
6.1898958836096174
 31
0.0
  0
LINE
  5
C6C16
  8
035
 10
-114.39422102995231
 20
4.1195059973169093
 30
0.0
 11
-113.93522664257119
 21
6.1898958836096174
 31
0.0
  0
LINE
  5
C6C17
  8
035
 10
-112.2931360945968
 20
4.3759284459971211
 30
0.0
 11
-111.8909891954701
 21
6.1898958836096174
 31
0.0
  0
LINE
  5
C6C18
  8
035
 10
-110.0519479814474
 20
4.2792745494674778
 30
0.0
 11
-109.62837342933619
 21
6.1898958836096174
 31
0.0
  0
LINE
  5
C6C19
  8
035
 10
-108.0752437571043
 20
3.9747288889998709
 30
0.0
 11
-107.5841530575365
 21
6.1898958836096174
 31
0.0
  0
LINE
  5
C6C1A
  8
035
 10
-113.93522664257119
 20
6.1898958836096174
 30
0.0
 11
-111.8909891954701
 21
6.1898958836096174
 31
0.0
  0
POLYLINE
  5
C6C1B
  8
035
 66
     1
 10
0.0
 20
0.0
 30
0.0
  0
VERTEX
  5
C8AD7
  8
035
 10
-114.39422102995211
 20
4.1195059973169093
 30
0.0
 42
0.0533041479355404
  0
VERTEX
  5
C8AD8
  8
035
 10
-114.40193616494869
 20
4.0473426288731407
 30
0.0
 42
0.2429550060825716
  0
SEQEND
  5
C8AD9
  8
035
  0
POLYLINE
  5
C6C1C
  8
035
 66
     1
 10
0.0
 20
0.0
 30
0.0
  0
VERTEX
  5
C8ADA
  8
035
 10
-114.40193616494869
 20
4.0473426288731407
 30
0.0
 42
0.2429550060825716
  0
VERTEX
  5
C8ADB
  8
035
 10
-114.2582140839238
 20
3.76902241533011
 30
0.0
 42
0.0830391319818528
  0
VERTEX
  5
C8ADC
  8
035
 10
-113.47426934517441
 20
3.3886409177960242
 30
0.0
 42
0.0412286692587949
  0
VERTEX
  5
C8ADD
  8
035
 10
-112.53523592918479
 20
3.1947274822628482
 30
0.0
 42
0.0303168106148105
  0
VERTEX
  5
C8ADE
  8
035
 10
-111.2346835275122
 20
3.115797735509434
 30
0.0
 42
0.0303168106148056
  0
VERTEX
  5
C8ADF
  8
035
 10
-109.9341311258396
 20
3.1947274822628482
 30
0.0
 42
0.0412286692587985
  0
VERTEX
  5
C8AE0
  8
035
 10
-108.99509770985
 20
3.3886409177960242
 30
0.0
 42
0.0830391319818556
  0
VERTEX
  5
C8AE1
  8
035
 10
-108.2111529711005
 20
3.76902241533011
 30
0.0
 42
0.1868768484129985
  0
VERTEX
  5
C8AE2
  8
035
 10
-108.0752437571044
 20
3.9747288889998709
 30
0.0
 42
0.2429550060826199
  0
SEQEND
  5
C8AE3
  8
035
  0
POLYLINE
  5
C6C1D
  8
035
 66
     1
 10
0.0
 20
0.0
 30
0.0
  0
VERTEX
  5
C8AE4
  8
035
 10
-112.2988649389131
 20
4.3268060968822528
 30
0.0
 42
0.1991045112703633
  0
VERTEX
  5
C8AE5
  8
035
 10
-112.2362306163629
 20
4.1757514211997337
 30
0.0
 42
0.0984366758760737
  0
VERTEX
  5
C8AE6
  8
035
 10
-111.9690267473226
 20
3.9974552413436268
 30
0.0
 42
0.0556835448182592
  0
VERTEX
  5
C8AE7
  8
035
 10
-111.63143976912821
 20
3.9000426884620101
 30
0.0
 42
0.0424435076919051
  0
VERTEX
  5
C8AE8
  8
035
 10
-111.172726911796
 20
3.8610336502004512
 30
0.0
 42
0.0424435076918822
  0
VERTEX
  5
C8AE9
  8
035
 10
-110.7140140544636
 20
3.9000426884619421
 30
0.0
 42
0.0556835448182298
  0
VERTEX
  5
C8AEA
  8
035
 10
-110.3764270762692
 20
3.9974552413436268
 30
0.0
 42
0.0984366758760371
  0
VERTEX
  5
C8AEB
  8
035
 10
-110.10922320722899
 20
4.1757514211996316
 30
0.0
 42
0.1413271427614488
  0
VERTEX
  5
C8AEC
  8
035
 10
-110.0519479814474
 20
4.2792745494674778
 30
0.0
 42
0.1991045112703793
  0
SEQEND
  5
C8AED
  8
035
  0
POLYLINE
  5
C6C1E
  8
035
 66
     1
 10
0.0
 20
0.0
 30
0.0
  0
VERTEX
  5
C8AEE
  8
035
 10
-112.2931360945968
 20
4.3759284459971211
 30
0.0
 42
0.0581150540440913
  0
VERTEX
  5
C8AEF
  8
035
 10
-112.2988649389131
 20
4.3268060968822528
 30
0.0
 42
0.1991045112703633
  0
SEQEND
  5
C8AF0
  8
035
  0
LINE
  5
C6C1F
  8
035
 10
-109.62837342933619
 20
6.1898958836096174
 30
0.0
 11
-107.5841530575366
 21
6.1898958836096174
 31
0.0
  0
LINE
  5
C6C20
  8
035
 10
-107.20700925637691
 20
5.444659968918617
 30
0.0
 11
-107.0417944316801
 21
6.1898958836096174
 31
0.0
  0
LINE
  5
C6C21
  8
035
 10
-105.83956394374
 20
3.2089522248458731
 30
0.0
 11
-105.34391946964951
 21
5.444659968918617
 31
0.0
  0
LINE
  5
C6C22
  8
035
 10
-103.79016517834
 20
3.2089522248458731
 30
0.0
 11
-103.29452070424939
 21
5.444659968918617
 31
0.0
  0
LINE
  5
C6C23
  8
035
 10
-101.33827642818569
 20
5.444659968918617
 30
0.0
 11
-101.173061603489
 21
6.1898958836096174
 31
0.0
  0
LINE
  5
C6C24
  8
035
 10
-107.20700925637691
 20
5.444659968918617
 30
0.0
 11
-105.34391946964951
 21
5.444659968918617
 31
0.0
  0
LINE
  5
C6C25
  8
035
 10
-105.83956394374
 20
3.2089522248458731
 30
0.0
 11
-103.79016517834
 21
3.2089522248458731
 31
0.0
  0
LINE
  5
C6C26
  8
035
 10
-107.0417944316801
 20
6.1898958836096174
 30
0.0
 11
-101.173061603489
 21
6.1898958836096174
 31
0.0
  0
LINE
  5
C6C27
  8
035
 10
-103.29452070424939
 20
5.444659968918617
 30
0.0
 11
-101.33827642818569
 21
5.444659968918617
 31
0.0
  0
LINE
  5
C6C28
  8
035
 10
-101.1818394769216
 20
3.2089522248458051
 30
0.0
 11
-100.52098017813439
 21
6.189895883609565
 31
0.0
  0
LINE
  5
C6C29
  8
035
 10
-99.132440711521582
 20
3.2089522248458051
 30
0.0
 11
-98.886017141374879
 21
4.3204971182094676
 31
0.0
  0
LINE
  5
C6C2A
  8
035
 10
-101.1818394769216
 20
3.2089522248458051
 30
0.0
 11
-99.132440711521582
 21
3.2089522248458051
 31
0.0
  0
LINE
  5
C6C2B
  8
035
 10
-100.52098017813439
 20
6.1898958836096174
 30
0.0
 11
-95.290928624759346
 21
6.1898958836096174
 31
0.0
  0
LINE
  5
C6C2C
  8
035
 10
-94.918674734898246
 20
3.5209063363026778
 30
0.0
 11
-94.870132257751479
 21
4.2150961012516648
 31
0.0
  0
LINE
  5
C6C2D
  8
035
 10
-96.973279920251144
 20
3.446451062164297
 30
0.0
 11
-96.935760818494984
 21
3.9925148410080471
 31
0.0
  0
LINE
  5
C6C2E
  8
035
 10
-98.808873136464385
 20
4.6684712371658197
 30
0.0
 11
-98.588630456920498
 21
5.6619217646532061
 31
0.0
  0
ARC
  5
C6C2F
  8
035
 10
-94.454036886486776
 20
3.4884156928548999
 30
0.0
 40
0.4657724466818367
 50
175.99999999999881
 51
216.8698976458987
  0
ARC
  5
C6C30
  8
035
 10
-96.524731588143297
 20
3.4524951785273088
 30
0.0
 40
0.4485890520078757
 50
180.77200466132189
 51
212.88187534886279
  0
LINE
  5
C6C31
  8
035
 10
-96.901452927192295
 20
3.2089522248458051
 30
0.0
 11
-94.826654843831534
 21
3.2089522248458051
 31
0.0
  0
POLYLINE
  5
C6C32
  8
035
 66
     1
 10
0.0
 20
0.0
 30
0.0
  0
VERTEX
  5
C8AF1
  8
035
 10
-94.870132257750413
 20
4.2150961012515626
 30
0.0
 42
0.0848312786284099
  0
VERTEX
  5
C8AF2
  8
035
 10
-94.880776466524537
 20
4.3297877881289271
 30
0.0
 42
0.1530484383254131
  0
VERTEX
  5
C8AF3
  8
035
 10
-94.990370323852645
 20
4.502459983347026
 30
0.0
 42
0.0253150863346336
  0
VERTEX
  5
C8AF4
  8
035
 10
-95.04547907006534
 20
4.5444320109185954
 30
0.0
 42
0.0679481782030558
  0
SEQEND
  5
C8AF5
  8
035
  0
POLYLINE
  5
C6C33
  8
035
 66
     1
 10
0.0
 20
0.0
 30
0.0
  0
VERTEX
  5
C8AF6
  8
035
 10
-95.04547907006534
 20
4.5444320109185954
 30
0.0
 42
0.0153688240491597
  0
VERTEX
  5
C8AF7
  8
035
 10
-94.909079219236318
 20
4.6142399160250331
 30
0.0
 42
0.0739810726103034
  0
VERTEX
  5
C8AF8
  8
035
 10
-94.516614304132929
 20
4.9135000826235373
 30
0.0
 42
0.1068944749256624
  0
VERTEX
  5
C8AF9
  8
035
 10
-94.271190998582497
 20
5.3061237676075068
 30
0.0
 42
0.1530484383253946
  0
VERTEX
  5
C8AFA
  8
035
 10
-94.257471051485311
 20
5.6330604656076471
 30
0.0
 42
0.1530484383254131
  0
VERTEX
  5
C8AFB
  8
035
 10
-94.432821223210169
 20
5.9093359779565686
 30
0.0
 42
0.1068944749256794
  0
VERTEX
  5
C8AFC
  8
035
 10
-94.841675882989591
 20
6.126646410505006
 30
0.0
 42
0.0679481782030558
  0
VERTEX
  5
C8AFD
  8
035
 10
-95.290928624759346
 20
6.1898958836113041
 30
0.0
 42
0.0605663674549872
  0
SEQEND
  5
C8AFE
  8
035
  0
LINE
  5
C6C34
  8
035
 10
-93.915789308684992
 20
3.2089522248458051
 30
0.0
 11
-93.254930009897706
 21
6.189895883609565
 31
0.0
  0
LINE
  5
C6C35
  8
035
 10
-91.86639054328495
 20
3.2089522248458051
 30
0.0
 11
-91.205531244497678
 21
6.189895883609565
 31
0.0
  0
LINE
  5
C6C36
  8
035
 10
-93.915789308684992
 20
3.2089522248458051
 30
0.0
 11
-91.86639054328495
 21
3.2089522248458051
 31
0.0
  0
LINE
  5
C6C37
  8
035
 10
-93.254930009897706
 20
6.189895883609565
 30
0.0
 11
-91.205531244497678
 21
6.189895883609565
 31
0.0
  0
LINE
  5
C6C38
  8
035
 10
-90.655382181912188
 20
3.2089522248458051
 30
0.0
 11
-89.994522883124887
 21
6.189895883609565
 31
0.0
  0
LINE
  5
C6C39
  8
035
 10
-88.699137905848474
 20
3.2089522248458051
 30
0.0
 11
-88.533923081151713
 21
3.954188139536805
 31
0.0
  0
LINE
  5
C6C3A
  8
035
 10
-89.994522883124887
 20
6.189895883609565
 30
0.0
 11
-88.038278607061187
 21
6.189895883609565
 31
0.0
  0
LINE
  5
C6C3B
  8
035
 10
-90.655382181912188
 20
3.2089522248458051
 30
0.0
 11
-88.699137905848474
 21
3.2089522248458051
 31
0.0
  0
LINE
  5
C6C3C
  8
035
 10
-88.533923081151713
 20
3.954188139536805
 30
0.0
 11
-87.659502509444039
 21
4.3268060968822528
 31
0.0
  0
LINE
  5
C6C3D
  8
035
 10
-88.261804546356856
 20
5.1816355284394691
 30
0.0
 11
-85.895725352324675
 21
6.189895883609565
 31
0.0
  0
LINE
  5
C6C3E
  8
035
 10
-85.895725352324675
 20
6.189895883609565
 30
0.0
 11
-83.287399650906423
 21
6.189895883609565
 31
0.0
  0
LINE
  5
C6C3F
  8
035
 10
-87.659502509444039
 20
4.3268060968822528
 30
0.0
 11
-86.556584651112004
 21
3.2089522248458051
 31
0.0
  0
LINE
  5
C6C40
  8
035
 10
-85.692056223102114
 20
5.1651965009095901
 30
0.0
 11
-83.761949971020954
 21
3.2089522248458051
 31
0.0
  0
LINE
  5
C6C41
  8
035
 10
-85.692056223102114
 20
5.1651965009095901
 30
0.0
 11
-83.287399650906423
 21
6.189895883609565
 31
0.0
  0
LINE
  5
C6C42
  8
035
 10
-88.261804546356856
 20
5.1816355284394691
 30
0.0
 11
-88.038278607061187
 21
6.189895883609565
 31
0.0
  0
LINE
  5
C6C43
  8
035
 10
-86.556584651112004
 20
3.2089522248458051
 30
0.0
 11
-83.761949971020954
 21
3.2089522248458051
 31
0.0
  0
TEXT
  5
C6C44
  8
035
 62
     4
 10
-78.273304881030242
 20
3.264636211106505
 30
0.0
 40
2.484848484848484
  1
NINGBO CHINA
 41
0.85
 51
15.0
  7
HELV
  0
LINE
  5
C6C45
  8
035
 10
-118.52369117490301
 20
5.6619217646532061
 30
0.0
 11
-114.9838205801212
 21
5.6619217646532229
 31
0.0
  0
LINE
  5
C6C46
  8
035
 10
-118.6984997776553
 20
4.8734111137059379
 30
0.0
 11
-115.4380926508824
 21
4.8734111137059379
 31
0.0
  0
LINE
  5
C6C47
  8
035
 10
-118.77564378256569
 20
4.5254369947496018
 30
0.0
 11
-115.5152366557929
 21
4.5254369947496018
 31
0.0
  0
LINE
  5
C6C48
  8
035
 10
-118.9504523853178
 20
3.736926343802164
 30
0.0
 11
-115.410581790536
 21
3.736926343802164
 31
0.0
  0
LINE
  5
C6C49
  8
0
 62
     4
 10
-83.394402359718015
 20
6.144298682356693
 30
0.0
 11
-83.348805158465154
 21
6.1898958836095481
 31
0.0
  0
LINE
  5
C6C4A
  8
0
 62
     4
 10
-83.784164404957352
 20
3.2089522248457878
 30
0.0
 11
-83.772982485333955
 21
3.2201341444691729
 31
0.0
  0
LINE
  5
C6C4B
  8
035
 10
-98.588630456920498
 20
5.6619217646532061
 30
0.0
 11
-96.900758252506478
 21
5.6619217646532061
 31
0.0
  0
LINE
  5
C6C4C
  8
035
 10
-98.808873136464385
 20
4.6684712371658197
 30
0.0
 11
-97.176482420097443
 21
4.6684712371658197
 31
0.0
  0
LINE
  5
C6C4D
  8
035
 10
-98.886017141374879
 20
4.3204971182094676
 30
0.0
 11
-97.147354744985734
 21
4.3204971182094676
 31
0.0
  0
LINE
  5
C6C4E
  8
035
 10
-96.900758252506478
 20
5.6619217646532061
 30
0.0
 11
-96.767537947348103
 21
5.6401251817589433
 31
0.0
  0
LINE
  5
C6C4F
  8
035
 10
-96.767537947348103
 20
5.6401251817589433
 30
0.0
 11
-96.652102072247857
 21
5.5816478242916414
 31
0.0
  0
LINE
  5
C6C50
  8
035
 10
-96.652102072247857
 20
5.5816478242916414
 30
0.0
 11
-96.596690756971086
 21
5.4923963524172636
 31
0.0
  0
LINE
  5
C6C51
  8
035
 10
-96.596690756971086
 20
5.4923963524172636
 30
0.0
 11
-96.553596393071174
 21
5.3846780336826923
 31
0.0
  0
LINE
  5
C6C52
  8
035
 10
-96.553596393071174
 20
5.3846780336826923
 30
0.0
 11
-96.552054903409157
 21
5.2677292642879561
 31
0.0
  0
LINE
  5
C6C53
  8
035
 10
-96.552054903409157
 20
5.2677292642879561
 30
0.0
 11
-96.564368113306287
 21
5.0984567711993662
 31
0.0
  0
LINE
  5
C6C54
  8
035
 10
-96.564368113306287
 20
5.0984567711993662
 30
0.0
 11
-96.625937904271467
 21
4.9953581369497799
 31
0.0
  0
LINE
  5
C6C55
  8
035
 10
-96.625937904271467
 20
4.9953581369497799
 30
0.0
 11
-96.735215303683276
 21
4.8676330765267011
 31
0.0
  0
LINE
  5
C6C56
  8
035
 10
-96.735215303683276
 20
4.8676330765267011
 30
0.0
 11
-96.899907759851644
 21
4.7691481812222181
 31
0.0
  0
LINE
  5
C6C57
  8
035
 10
-96.899907759851644
 20
4.7691481812222181
 30
0.0
 11
-97.056903992149316
 21
4.6891301327779473
 31
0.0
  0
LINE
  5
C6C58
  8
035
 10
-97.056903992149316
 20
4.6891301327779473
 30
0.0
 11
-97.176482420097443
 21
4.6684712371658197
 31
0.0
  0
LINE
  5
C6C59
  8
035
 10
-97.147354744985734
 20
4.3204971182094676
 30
0.0
 11
-97.047898250361925
 21
4.3065049139473466
 31
0.0
  0
LINE
  5
C6C5A
  8
035
 10
-97.047898250361925
 20
4.3065049139473466
 30
0.0
 11
-96.984057381181131
 21
4.2661287526377603
 31
0.0
  0
LINE
  5
C6C5B
  8
035
 10
-96.984057381181131
 20
4.2661287526377603
 30
0.0
 11
-96.944973883586158
 21
4.2023033820504541
 31
0.0
  0
LINE
  5
C6C5C
  8
035
 10
-96.944973883586158
 20
4.2023033820504541
 30
0.0
 11
-96.926734169745899
 21
4.1254543063610036
 31
0.0
  0
LINE
  5
C6C5D
  8
035
 10
-96.926734169745899
 20
4.1254543063610036
 30
0.0
 11
-96.935760818494984
 21
3.9925148410080471
 31
0.0
  0
LINE
  5
C6C5E
  8
035
 62
     3
 10
-99.397082133556324
 20
3.2089522248457878
 30
0.0
 11
-99.057059510901098
 21
3.5489748475010141
 31
0.0
  0
LINE
  5
C6C5F
  8
035
 62
     3
 10
-96.944112593748883
 20
5.6619217646532229
 30
0.0
 11
-96.416138474792476
 21
6.1898958836096334
 31
0.0
  0
LINE
  5
C6C60
  8
035
 62
     3
 10
-98.285537240192653
 20
4.3204971182094676
 30
0.0
 11
-97.93756312123628
 21
4.6684712371658197
 31
0.0
  0
LINE
  5
C6C61
  8
035
 62
     3
 10
-99.778919795397044
 20
3.2089522248457878
 30
0.0
 11
-98.94829580652565
 21
4.0395762137171944
 31
0.0
  0
LINE
  5
C6C62
  8
035
 62
     3
 10
-97.325950255589589
 20
5.6619217646532229
 30
0.0
 11
-96.79797613663321
 21
6.1898958836096334
 31
0.0
  0
LINE
  5
C6C63
  8
035
 62
     3
 10
-98.667374902033359
 20
4.3204971182094676
 30
0.0
 11
-98.319400783077015
 21
4.6684712371658197
 31
0.0
  0
LINE
  5
C6C64
  8
035
 62
     3
 10
-100.16075745723781
 20
3.2089522248457878
 30
0.0
 11
-98.701238444917735
 21
4.6684712371658197
 31
0.0
  0
LINE
  5
C6C65
  8
035
 62
     3
 10
-97.707787917430323
 20
5.6619217646532229
 30
0.0
 11
-97.179813798473916
 21
6.1898958836096334
 31
0.0
  0
LINE
  5
C6C66
  8
035
 62
     3
 10
-100.5425951190785
 20
3.2089522248457878
 30
0.0
 11
-98.730768397774682
 21
5.0207789461496377
 31
0.0
  0
LINE
  5
C6C67
  8
035
 62
     3
 10
-98.089625579271086
 20
5.6619217646532229
 30
0.0
 11
-97.561651460314664
 21
6.1898958836096334
 31
0.0
  0
LINE
  5
C6C68
  8
035
 62
     3
 10
-100.9244327809192
 20
3.2089522248457878
 30
0.0
 11
-98.62200469339912
 21
5.5113803123659197
 31
0.0
  0
LINE
  5
C6C69
  8
035
 62
     3
 10
-98.47146324111182
 20
5.6619217646532229
 30
0.0
 11
-97.943489122155412
 21
6.1898958836096334
 31
0.0
  0
LINE
  5
C6C6A
  8
035
 62
     3
 10
-101.1463962136292
 20
3.3688264539765349
 30
0.0
 11
-98.325326783996161
 21
6.1898958836096334
 31
0.0
  0
LINE
  5
C6C6B
  8
035
 62
     3
 10
-101.0376325092537
 20
3.8594278201927321
 30
0.0
 11
-98.707164445836867
 21
6.1898958836096334
 31
0.0
  0
LINE
  5
C6C6C
  8
035
 62
     3
 10
-100.92886880487831
 20
4.3500291864089462
 30
0.0
 11
-99.089002107677615
 21
6.1898958836096334
 31
0.0
  0
LINE
  5
C6C6D
  8
035
 62
     3
 10
-100.8201051005028
 20
4.8406305526251421
 30
0.0
 11
-99.470839769518363
 21
6.1898958836096334
 31
0.0
  0
LINE
  5
C6C6E
  8
035
 62
     3
 10
-100.7113413961273
 20
5.3312319188413557
 30
0.0
 11
-99.852677431359055
 21
6.1898958836096334
 31
0.0
  0
LINE
  5
C6C6F
  8
035
 62
     3
 10
-100.6025776917519
 20
5.8218332850575534
 30
0.0
 11
-100.2345150931998
 21
6.1898958836096334
 31
0.0
  0
LINE
  5
C6C70
  8
035
 62
     3
 10
-101.3615886697315
 20
5.444659968918617
 30
0.0
 11
-101.33163610429619
 21
5.4746125343539136
 31
0.0
  0
LINE
  5
C6C71
  8
035
 62
     3
 10
-103.97913407564501
 20
3.2089522248458562
 30
0.0
 11
-103.7363387506806
 21
3.4517475498102299
 31
0.0
  0
LINE
  5
C6C72
  8
035
 62
     3
 10
-101.74342633157229
 20
5.444659968918617
 30
0.0
 11
-101.2228723999209
 21
5.9652139005700429
 31
0.0
  0
LINE
  5
C6C73
  8
035
 62
     3
 10
-104.3609717374858
 20
3.2089522248458562
 30
0.0
 11
-103.6275750463052
 21
3.9423489160264769
 31
0.0
  0
LINE
  5
C6C74
  8
035
 62
     3
 10
-102.125263993413
 20
5.444659968918617
 30
0.0
 11
-101.38002807872201
 21
6.1898958836096334
 31
0.0
  0
LINE
  5
C6C75
  8
035
 62
     3
 10
-104.7428093993265
 20
3.2089522248458562
 30
0.0
 11
-103.51881134192971
 21
4.4329502822427092
 31
0.0
  0
LINE
  5
C6C76
  8
035
 62
     3
 10
-102.50710165525381
 20
5.444659968918617
 30
0.0
 11
-101.7618657405627
 21
6.1898958836096334
 31
0.0
  0
LINE
  5
C6C77
  8
035
 62
     3
 10
-105.1246470611672
 20
3.2089522248458562
 30
0.0
 11
-103.4100476375542
 21
4.9235516484589388
 31
0.0
  0
LINE
  5
C6C78
  8
035
 62
     3
 10
-102.8889393170945
 20
5.444659968918617
 30
0.0
 11
-102.1437034024035
 21
6.1898958836096334
 31
0.0
  0
LINE
  5
C6C79
  8
035
 62
     3
 10
-105.506484723008
 20
3.2089522248458562
 30
0.0
 11
-103.30128393317869
 21
5.4141530146751533
 31
0.0
  0
LINE
  5
C6C7A
  8
035
 62
     3
 10
-103.2707769789352
 20
5.444659968918617
 30
0.0
 11
-102.52554106424419
 21
6.1898958836096334
 31
0.0
  0
LINE
  5
C6C7B
  8
035
 62
     3
 10
-105.82567545340881
 20
3.2715991562857849
 30
0.0
 11
-102.9073787260849
 21
6.1898958836096334
 31
0.0
  0
LINE
  5
C6C7C
  8
035
 62
     3
 10
-105.7169117490333
 20
3.7622005225019981
 30
0.0
 11
-103.28921638792571
 21
6.1898958836096334
 31
0.0
  0
LINE
  5
C6C7D
  8
035
 62
     3
 10
-105.6081480446579
 20
4.2528018887182286
 30
0.0
 11
-103.6710540497664
 21
6.1898958836096334
 31
0.0
  0
LINE
  5
C6C7E
  8
035
 62
     3
 10
-105.4993843402824
 20
4.7434032549344263
 30
0.0
 11
-104.0528917116071
 21
6.1898958836096334
 31
0.0
  0
LINE
  5
C6C7F
  8
035
 62
     3
 10
-105.3906206359069
 20
5.2340046211506399
 30
0.0
 11
-104.43472937344789
 21
6.1898958836096334
 31
0.0
  0
LINE
  5
C6C80
  8
035
 62
     3
 10
-105.56180294997959
 20
5.444659968918617
 30
0.0
 11
-104.8165670352886
 21
6.1898958836096334
 31
0.0
  0
LINE
  5
C6C81
  8
035
 62
     3
 10
-105.9436406118204
 20
5.444659968918617
 30
0.0
 11
-105.19840469712931
 21
6.1898958836096334
 31
0.0
  0
LINE
  5
C6C82
  8
035
 62
     3
 10
-106.3254782736611
 20
5.444659968918617
 30
0.0
 11
-105.5802423589701
 21
6.1898958836096334
 31
0.0
  0
LINE
  5
C6C83
  8
035
 62
     3
 10
-108.6223837756901
 20
3.5295921287303851
 30
0.0
 11
-108.0461888645634
 21
4.1057870398570309
 31
0.0
  0
LINE
  5
C6C84
  8
035
 62
     3
 10
-106.7073159355018
 20
5.444659968918617
 30
0.0
 11
-105.9620800208108
 21
6.1898958836096334
 31
0.0
  0
LINE
  5
C6C85
  8
035
 62
     3
 10
-109.20187581553419
 20
3.3319377507270209
 30
0.0
 11
-107.9374251601879
 21
4.5963884060732454
 31
0.0
  0
LINE
  5
C6C86
  8
035
 62
     3
 10
-107.0891535973426
 20
5.444659968918617
 30
0.0
 11
-106.34391768265159
 21
6.1898958836096334
 31
0.0
  0
LINE
  5
C6C87
  8
035
 62
     3
 10
-109.685112547144
 20
3.2305386809579169
 30
0.0
 11
-107.82866145581249
 21
5.086989772289475
 31
0.0
  0
LINE
  5
C6C88
  8
035
 62
     3
 10
-107.13181588656821
 20
5.7838353415337762
 30
0.0
 11
-106.7257553444923
 21
6.1898958836096334
 31
0.0
  0
LINE
  5
C6C89
  8
035
 62
     3
 10
-110.1242038578462
 20
3.1732850320964721
 30
0.0
 11
-107.719897751437
 21
5.5775911385057064
 31
0.0
  0
LINE
  5
C6C8A
  8
035
 62
     3
 10
-110.54114237449591
 20
3.1381841772874299
 30
0.0
 11
-107.6111340470615
 21
6.0681925047219201
 31
0.0
  0
LINE
  5
C6C8B
  8
035
 62
     3
 10
-110.9413656849794
 20
3.1197985286446981
 30
0.0
 11
-107.8712683300145
 21
6.1898958836096174
 31
0.0
  0
LINE
  5
C6C8C
  8
035
 62
     3
 10
-111.3268095365532
 20
3.1161923389116928
 30
0.0
 11
-110.4862919020804
 21
3.9567099733844451
 31
0.0
  0
LINE
  5
C6C8D
  8
035
 62
     3
 10
-110.0201084412425
 20
4.4228934342223249
 30
0.0
 11
-108.25310599185519
 21
6.1898958836096174
 31
0.0
  0
LINE
  5
C6C8E
  8
035
 62
     3
 10
-111.69901312532539
 20
3.1258264119801851
 30
0.0
 11
-110.95507239316839
 21
3.8697671441372301
 31
0.0
  0
LINE
  5
C6C8F
  8
035
 62
     3
 10
-109.91134473686699
 20
4.9134948004385732
 30
0.0
 11
-108.634943653696
 21
6.1898958836096174
 31
0.0
  0
LINE
  5
C6C90
  8
035
 62
     3
 10
-112.05922377853371
 20
3.1474534206126319
 30
0.0
 11
-111.3404602385114
 21
3.866216960634917
 31
0.0
  0
LINE
  5
C6C91
  8
035
 62
     3
 10
-109.8025810324915
 20
5.4040961666548384
 30
0.0
 11
-109.0167813155367
 21
6.1898958836096174
 31
0.0
  0
LINE
  5
C6C92
  8
035
 62
     3
 10
-112.40846839019569
 20
3.1800464707913392
 30
0.0
 11
-111.6794767945423
 21
3.9090380664447841
 31
0.0
  0
LINE
  5
C6C93
  8
035
 62
     3
 10
-109.693817328116
 20
5.8946975328710858
 30
0.0
 11
-109.3986189773774
 21
6.1898958836096174
 31
0.0
  0
LINE
  5
C6C94
  8
035
 62
     3
 10
-112.746026423499
 20
3.2243260993287799
 30
0.0
 11
-111.9717607396246
 21
3.9985917832031901
 31
0.0
  0
LINE
  5
C6C95
  8
035
 62
     3
 10
-113.0674304360607
 20
3.2847597486078559
 30
0.0
 11
-112.2055448239268
 21
4.1466453607417657
 31
0.0
  0
LINE
  5
C6C96
  8
035
 62
     3
 10
-113.37392582005521
 20
3.3601020264540549
 30
0.0
 11
-112.27463176538591
 21
4.4593960811233924
 31
0.0
  0
LINE
  5
C6C97
  8
035
 62
     3
 10
-113.66365029250341
 20
3.4522152158466688
 30
0.0
 11
-112.1658680610105
 21
4.9499974473395554
 31
0.0
  0
LINE
  5
C6C98
  8
035
 62
     3
 10
-113.9283730895371
 20
3.569330080653637
 30
0.0
 11
-112.05710435663499
 21
5.4405988135557344
 31
0.0
  0
LINE
  5
C6C99
  8
035
 62
     3
 10
-114.1703111462936
 20
3.709229685737883
 30
0.0
 11
-111.9483406522596
 21
5.9312001797718974
 31
0.0
  0
LINE
  5
C6C9A
  8
035
 62
     3
 10
-114.36616270988991
 20
3.895215783982362
 30
0.0
 11
-112.07148261026261
 21
6.1898958836096174
 31
0.0
  0
LINE
  5
C6C9B
  8
035
 62
     3
 10
-114.3573369855183
 20
4.2858791701946659
 30
0.0
 11
-112.4533202721033
 21
6.1898958836096174
 31
0.0
  0
LINE
  5
C6C9C
  8
035
 62
     3
 10
-115.8161015927078
 20
3.2089522248458899
 30
0.0
 11
-115.4454620195999
 21
3.579591797953773
 31
0.0
  0
LINE
  5
C6C9D
  8
035
 62
     3
 10
-114.2485732811428
 20
4.7764805364108982
 30
0.0
 11
-112.8351579339441
 21
6.1898958836096174
 31
0.0
  0
LINE
  5
C6C9E
  8
035
 62
     3
 10
-116.1979392545486
 20
3.2089522248458899
 30
0.0
 11
-115.66996513559231
 21
3.736926343802164
 31
0.0
  0
LINE
  5
C6C9F
  8
035
 62
     3
 10
-114.13980957676731
 20
5.2670819026271278
 30
0.0
 11
-113.21699559578479
 21
6.1898958836096174
 31
0.0
  0
LINE
  5
C6CA0
  8
035
 62
     3
 10
-116.57977691638931
 20
3.2089522248458899
 30
0.0
 11
-116.051802797433
 21
3.736926343802164
 31
0.0
  0
LINE
  5
C6CA1
  8
035
 62
     3
 10
-114.0310458723919
 20
5.7576832688433246
 30
0.0
 11
-113.5988332576255
 21
6.1898958836096174
 31
0.0
  0
LINE
  5
C6CA2
  8
035
 62
     3
 10
-116.96161457823
 20
3.2089522248458899
 30
0.0
 11
-116.4336404592737
 21
3.736926343802164
 31
0.0
  0
LINE
  5
C6CA3
  8
035
 62
     3
 10
-115.6451298083263
 20
4.5254369947496196
 30
0.0
 11
-115.4782375280105
 21
4.6923292750653642
 31
0.0
  0
LINE
  5
C6CA4
  8
035
 62
     3
 10
-117.3434522400708
 20
3.2089522248458899
 30
0.0
 11
-116.8154781211145
 21
3.736926343802164
 31
0.0
  0
LINE
  5
C6CA5
  8
035
 62
     3
 10
-116.02696747016699
 20
4.5254369947496196
 30
0.0
 11
-115.67899335121071
 21
4.8734111137059379
 31
0.0
  0
LINE
  5
C6CA6
  8
035
 62
     3
 10
-117.72528990191149
 20
3.2089522248458899
 30
0.0
 11
-117.1973157829552
 21
3.736926343802164
 31
0.0
  0
LINE
  5
C6CA7
  8
035
 62
     3
 10
-115.2723203621041
 20
5.6619217646532229
 30
0.0
 11
-114.9016434977226
 21
6.0325986290348084
 31
0.0
  0
LINE
  5
C6CA8
  8
035
 62
     3
 10
-116.4088051320078
 20
4.5254369947496196
 30
0.0
 11
-116.0608310130514
 21
4.8734111137059379
 31
0.0
  0
LINE
  5
C6CA9
  8
035
 62
     3
 10
-118.1071275637522
 20
3.2089522248458899
 30
0.0
 11
-117.57915344479591
 21
3.736926343802164
 31
0.0
  0
LINE
  5
C6CAA
  8
035
 62
     3
 10
-115.6541580239449
 20
5.6619217646532229
 30
0.0
 11
-115.12618390498849
 21
6.1898958836096174
 31
0.0
  0
LINE
  5
C6CAB
  8
035
 62
     3
 10
-116.79064279384851
 20
4.5254369947496196
 30
0.0
 11
-116.4426686748922
 21
4.8734111137059379
 31
0.0
  0
LINE
  5
C6CAC
  8
035
 62
     3
 10
-118.48896522559301
 20
3.2089522248458899
 30
0.0
 11
-117.9609911066367
 21
3.736926343802164
 31
0.0
  0
LINE
  5
C6CAD
  8
035
 62
     3
 10
-116.03599568578569
 20
5.6619217646532229
 30
0.0
 11
-115.5080215668292
 21
6.1898958836096174
 31
0.0
  0
LINE
  5
C6CAE
  8
035
 62
     3
 10
-117.1724804556892
 20
4.5254369947496196
 30
0.0
 11
-116.8245063367329
 21
4.8734111137059379
 31
0.0
  0
LINE
  5
C6CAF
  8
035
 62
     3
 10
-118.8708028874337
 20
3.2089522248458899
 30
0.0
 11
-118.3428287684774
 21
3.736926343802164
 31
0.0
  0
LINE
  5
C6CB0
  8
035
 62
     3
 10
-116.4178333476264
 20
5.6619217646532229
 30
0.0
 11
-115.88985922867001
 21
6.1898958836096174
 31
0.0
  0
LINE
  5
C6CB1
  8
035
 62
     3
 10
-117.55431811753
 20
4.5254369947496196
 30
0.0
 11
-117.2063439985737
 21
4.8734111137059379
 31
0.0
  0
LINE
  5
C6CB2
  8
035
 62
     3
 10
-119.2526405492744
 20
3.2089522248458899
 30
0.0
 11
-118.72466643031809
 21
3.736926343802164
 31
0.0
  0
LINE
  5
C6CB3
  8
035
 62
     3
 10
-116.7996710094671
 20
5.6619217646532061
 30
0.0
 11
-116.2716968905107
 21
6.1898958836096174
 31
0.0
  0
LINE
  5
C6CB4
  8
035
 62
     3
 10
-117.93615577937069
 20
4.5254369947496196
 30
0.0
 11
-117.58818166041441
 21
4.8734111137059379
 31
0.0
  0
LINE
  5
C6CB5
  8
035
 62
     3
 10
-119.63447821111519
 20
3.2089522248458899
 30
0.0
 11
-118.9060021819818
 21
3.9374282539792231
 31
0.0
  0
LINE
  5
C6CB6
  8
035
 62
     3
 10
-117.1815086713078
 20
5.6619217646532061
 30
0.0
 11
-116.6535345523514
 21
6.1898958836096174
 31
0.0
  0
LINE
  5
C6CB7
  8
035
 62
     3
 10
-118.3179934412114
 20
4.5254369947496196
 30
0.0
 11
-117.9700193222551
 21
4.8734111137059379
 31
0.0
  0
LINE
  5
C6CB8
  8
035
 62
     3
 10
-120.0163158729559
 20
3.2089522248458899
 30
0.0
 11
-118.7972384776065
 21
4.4280296201953337
 31
0.0
  0
LINE
  5
C6CB9
  8
035
 62
     3
 10
-117.5633463331486
 20
5.6619217646532061
 30
0.0
 11
-117.03537221419219
 21
6.1898958836096174
 31
0.0
  0
LINE
  5
C6CBA
  8
035
 62
     3
 10
-118.6998311030522
 20
4.5254369947496196
 30
0.0
 11
-118.3518569840958
 21
4.8734111137059379
 31
0.0
  0
LINE
  5
C6CBB
  8
035
 62
     3
 10
-120.39815353479661
 20
3.2089522248458899
 30
0.0
 11
-118.68847477323111
 21
4.9186309864114293
 31
0.0
  0
LINE
  5
C6CBC
  8
035
 62
     3
 10
-117.94518399498931
 20
5.6619217646532061
 30
0.0
 11
-117.4172098760329
 21
6.1898958836096174
 31
0.0
  0
LINE
  5
C6CBD
  8
035
 62
     3
 10
-120.7799911966374
 20
3.2089522248458899
 30
0.0
 11
-118.5797110688555
 21
5.4092323526277619
 31
0.0
  0
LINE
  5
C6CBE
  8
035
 62
     3
 10
-118.3270216568301
 20
5.6619217646532061
 30
0.0
 11
-117.79904753787361
 21
6.1898958836096174
 31
0.0
  0
LINE
  5
C6CBF
  8
035
 62
     3
 10
-121.1041025890855
 20
3.266678494238564
 30
0.0
 11
-118.1808851997144
 21
6.1898958836096174
 31
0.0
  0
LINE
  5
C6CC0
  8
035
 62
     3
 10
-120.99533888470999
 20
3.7572798604547608
 30
0.0
 11
-118.5627228615551
 21
6.1898958836096174
 31
0.0
  0
LINE
  5
C6CC1
  8
035
 62
     3
 10
-120.8865751803345
 20
4.247881226670958
 30
0.0
 11
-118.94456052339579
 21
6.1898958836096174
 31
0.0
  0
LINE
  5
C6CC2
  8
035
 62
     3
 10
-122.30734184400031
 20
3.2089522248458731
 30
0.0
 11
-122.09438908826191
 21
3.4219049805843289
 31
0.0
  0
LINE
  5
C6CC3
  8
035
 62
     3
 10
-120.7778114759591
 20
4.738482592887137
 30
0.0
 11
-119.3263981852366
 21
6.1898958836096174
 31
0.0
  0
LINE
  5
C6CC4
  8
035
 62
     3
 10
-122.6891795058411
 20
3.2089522248458731
 30
0.0
 11
-121.9856253838864
 21
3.912506346800543
 31
0.0
  0
LINE
  5
C6CC5
  8
035
 62
     3
 10
-120.66904777158361
 20
5.2290839591033507
 30
0.0
 11
-119.7082358470773
 21
6.1898958836096174
 31
0.0
  0
LINE
  5
C6CC6
  8
035
 62
     3
 10
-123.0710171676818
 20
3.2089522248458731
 30
0.0
 11
-121.8768616795109
 21
4.4031077130167571
 31
0.0
  0
LINE
  5
C6CC7
  8
035
 62
     3
 10
-120.5602840672082
 20
5.7196853253195483
 30
0.0
 11
-120.090073508918
 21
6.1898958836096174
 31
0.0
  0
LINE
  5
C6CC8
  8
035
 62
     3
 10
-123.45285482952249
 20
3.2089522248458731
 30
0.0
 11
-121.7680979751354
 21
4.893709079232953
 31
0.0
  0
LINE
  5
C6CC9
  8
035
 62
     3
 10
-123.8346924913633
 20
3.2089522248458731
 30
0.0
 11
-121.65933427076
 21
5.3843104454491497
 31
0.0
  0
LINE
  5
C6CCA
  8
035
 62
     3
 10
-124.216530153204
 20
3.2089522248458731
 30
0.0
 11
-121.55057056638449
 21
5.8749118116653651
 31
0.0
  0
LINE
  5
C6CCB
  8
035
 62
     3
 10
-124.53779589722249
 20
3.2695241426681458
 30
0.0
 11
-121.617424156281
 21
6.1898958836096174
 31
0.0
  0
LINE
  5
C6CCC
  8
035
 62
     3
 10
-124.73880827529629
 20
3.4503494264350341
 30
0.0
 11
-121.9992618181217
 21
6.1898958836096174
 31
0.0
  0
LINE
  5
C6CCD
  8
035
 62
     3
 10
-124.93982065337021
 20
3.6311747102019201
 30
0.0
 11
-122.3810994799625
 21
6.1898958836096174
 31
0.0
  0
LINE
  5
C6CCE
  8
035
 62
     3
 10
-125.140833031444
 20
3.8119999939688078
 30
0.0
 11
-123.964738004376
 21
4.9880950210368242
 31
0.0
  0
LINE
  5
C6CCF
  8
035
 62
     3
 10
-123.7486709734882
 20
5.2041620519246381
 30
0.0
 11
-122.76293714180321
 21
6.1898958836096174
 31
0.0
  0
LINE
  5
C6CD0
  8
035
 62
     3
 10
-125.3418454095179
 20
3.9928252777356952
 30
0.0
 11
-124.188867265826
 21
5.1458034214275887
 31
0.0
  0
LINE
  5
C6CD1
  8
035
 62
     3
 10
-123.6399072691127
 20
5.6947634181409033
 30
0.0
 11
-123.1447748036439
 21
6.1898958836096174
 31
0.0
  0
LINE
  5
C6CD2
  8
035
 62
     3
 10
-125.5428577875917
 20
4.1736505615026003
 30
0.0
 11
-124.41299652727589
 21
5.303511821818371
 31
0.0
  0
LINE
  5
C6CD3
  8
035
 62
     3
 10
-123.53114356473711
 20
6.1853647843571498
 30
0.0
 11
-123.5266124654847
 21
6.1898958836096174
 31
0.0
  0
LINE
  5
C6CD4
  8
035
 62
     3
 10
-126.8893937860892
 20
3.2089522248458562
 30
0.0
 11
-126.65397945419581
 21
3.4443665567392281
 31
0.0
  0
LINE
  5
C6CD5
  8
035
 62
     3
 10
-125.7438701656655
 20
4.3544758452694881
 30
0.0
 11
-124.6371257887259
 21
5.461220222209155
 31
0.0
  0
LINE
  5
C6CD6
  8
035
 62
     3
 10
-127.27123144792991
 20
3.2089522248458562
 30
0.0
 11
-126.5452157498203
 21
3.9349679229554591
 31
0.0
  0
LINE
  5
C6CD7
  8
035
 62
     3
 10
-125.9448825437394
 20
4.5353011290363741
 30
0.0
 11
-124.8612550501758
 21
5.6189286225999204
 31
0.0
  0
LINE
  5
C6CD8
  8
035
 62
     3
 10
-127.6530691097707
 20
3.2089522248458562
 30
0.0
 11
-126.4364520454448
 21
4.4255692891716558
 31
0.0
  0
LINE
  5
C6CD9
  8
035
 62
     3
 10
-126.14589492181319
 20
4.7161264128032618
 30
0.0
 11
-125.0853843116258
 21
5.7766370229907027
 31
0.0
  0
LINE
  5
C6CDA
  8
035
 62
     3
 10
-128.03490677161139
 20
3.2089522248458562
 30
0.0
 11
-125.3095135730758
 21
5.9343454233814681
 31
0.0
  0
LINE
  5
C6CDB
  8
035
 62
     3
 10
-128.4167444334521
 20
3.2089522248458562
 30
0.0
 11
-125.53364283452569
 21
6.0920538237722521
 31
0.0
  0
LINE
  5
C6CDC
  8
035
 62
     3
 10
-128.7433161569239
 20
3.264218163214835
 30
0.0
 11
-125.81763843652909
 21
6.1898958836096174
 31
0.0
  0
LINE
  5
C6CDD
  8
035
 62
     3
 10
-128.63455245254841
 20
3.7548195294310309
 30
0.0
 11
-126.1994760983699
 21
6.1898958836096174
 31
0.0
  0
LINE
  5
C6CDE
  8
035
 62
     3
 10
-128.52578874817289
 20
4.2454208956472277
 30
0.0
 11
-126.58131376021061
 21
6.1898958836096174
 31
0.0
  0
LINE
  5
C6CDF
  8
035
 62
     3
 10
-128.41702504379751
 20
4.7360222618634422
 30
0.0
 11
-126.9631514220513
 21
6.1898958836096174
 31
0.0
  0
LINE
  5
C6CE0
  8
035
 62
     3
 10
-128.30826133942199
 20
5.2266236280796381
 30
0.0
 11
-127.344989083892
 21
6.1898958836096174
 31
0.0
  0
LINE
  5
C6CE1
  8
035
 62
     3
 10
-128.1994976350465
 20
5.7172249942958517
 30
0.0
 11
-127.72682674573279
 21
6.1898958836096174
 31
0.0
  0
LINE
  5
C6CE2
  8
035
 62
     3
 10
-97.903699578351905
 20
4.3204971182094676
 30
0.0
 11
-97.555725459395532
 21
4.6684712371658197
 31
0.0
  0
LINE
  5
C6CE3
  8
035
 62
     3
 10
-96.648442835575366
 20
5.575753860986012
 30
0.0
 11
-96.034300812951713
 21
6.1898958836096334
 31
0.0
  0
LINE
  5
C6CE4
  8
035
 62
     3
 10
-97.521861916511156
 20
4.3204971182094676
 30
0.0
 11
-97.173345922406455
 21
4.669013112314186
 31
0.0
  0
LINE
  5
C6CE5
  8
035
 62
     3
 10
-96.552348589357834
 20
5.2900104453627836
 30
0.0
 11
-95.652463151111007
 21
6.1898958836096334
 31
0.0
  0
LINE
  5
C6CE6
  8
035
 62
     3
 10
-97.140928361274021
 20
4.3195930116058694
 30
0.0
 11
-95.270829982268765
 21
6.1896913906111326
 31
0.0
  0
LINE
  5
C6CE7
  8
035
 62
     3
 10
-96.931816425032622
 20
4.1468672860065077
 30
0.0
 11
-94.929703162999743
 21
6.1489805480393862
 31
0.0
  0
LINE
  5
C6CE8
  8
035
 62
     3
 10
-96.95283509237818
 20
3.744010956820258
 30
0.0
 11
-94.646299004069519
 21
6.0505470451288854
 31
0.0
  0
LINE
  5
C6CE9
  8
035
 62
     3
 10
-96.962121863985502
 20
3.3528865233721681
 30
0.0
 11
-94.418345581340859
 21
5.8966628060168338
 31
0.0
  0
LINE
  5
C6CEA
  8
035
 62
     3
 10
-96.724218500671157
 20
3.2089522248458051
 30
0.0
 11
-94.267355379022163
 21
5.6658153464947949
 31
0.0
  0
LINE
  5
C6CEB
  8
035
 62
     3
 10
-96.342380838830422
 20
3.2089522248458051
 30
0.0
 11
-95.022979772043726
 21
4.5283532916325013
 31
0.0
  0
LINE
  5
C6CEC
  8
035
 62
     3
 10
-94.969135470699968
 20
4.5821975929762484
 30
0.0
 11
-94.287360214694175
 21
5.263972848982049
 31
0.0
  0
LINE
  5
C6CED
  8
035
 62
     3
 10
-95.960543176989688
 20
3.2089522248458051
 30
0.0
 11
-94.873526014076333
 21
4.2959693877591141
 31
0.0
  0
LINE
  5
C6CEE
  8
035
 62
     3
 10
-93.333355914920759
 20
5.8361394869147123
 30
0.0
 11
-92.979599518225925
 21
6.1898958836095481
 31
0.0
  0
LINE
  5
C6CEF
  8
035
 62
     3
 10
-95.578705515148926
 20
3.2089522248458051
 30
0.0
 11
-94.892504867759584
 21
3.8951528722351858
 31
0.0
  0
LINE
  5
C6CF0
  8
035
 62
     3
 10
-93.44211961929625
 20
5.3455381206985146
 30
0.0
 11
-92.597761856385176
 21
6.1898958836095481
 31
0.0
  0
LINE
  5
C6CF1
  8
035
 62
     3
 10
-95.19686785330822
 20
3.2089522248458051
 30
0.0
 11
-94.919803156182667
 21
3.4860169219713582
 31
0.0
  0
LINE
  5
C6CF2
  8
035
 62
     3
 10
-93.550883323671698
 20
4.8549367544823001
 30
0.0
 11
-92.215924194544471
 21
6.1898958836095481
 31
0.0
  0
LINE
  5
C6CF3
  8
035
 62
     3
 10
-93.659647028047175
 20
4.3643353882660874
 30
0.0
 11
-91.834086532703722
 21
6.1898958836095481
 31
0.0
  0
LINE
  5
C6CF4
  8
035
 62
     3
 10
-93.768410732422666
 20
3.8737340220498728
 30
0.0
 11
-91.452248870862974
 21
6.1898958836095481
 31
0.0
  0
LINE
  5
C6CF5
  8
035
 62
     3
 10
-93.877174436798128
 20
3.3831326558336601
 30
0.0
 11
-91.244019212192654
 21
6.0162878804391386
 31
0.0
  0
LINE
  5
C6CF6
  8
035
 62
     3
 10
-93.669517205945255
 20
3.2089522248458051
 30
0.0
 11
-91.352782916568117
 21
5.5256865142229419
 31
0.0
  0
LINE
  5
C6CF7
  8
035
 62
     3
 10
-93.287679544104535
 20
3.2089522248458051
 30
0.0
 11
-91.461546620943594
 21
5.0350851480067291
 31
0.0
  0
LINE
  5
C6CF8
  8
035
 62
     3
 10
-92.905841882263786
 20
3.2089522248458051
 30
0.0
 11
-91.57031032531907
 21
4.5444837817905324
 31
0.0
  0
LINE
  5
C6CF9
  8
035
 62
     3
 10
-90.014354965324884
 20
6.1004391417847073
 30
0.0
 11
-89.924898223499994
 21
6.1898958836095819
 31
0.0
  0
LINE
  5
C6CFA
  8
035
 62
     3
 10
-92.524004220423038
 20
3.2089522248458051
 30
0.0
 11
-91.679074029694505
 21
4.0538824155743178
 31
0.0
  0
LINE
  5
C6CFB
  8
035
 62
     3
 10
-90.123118669700347
 20
5.6098377755684927
 30
0.0
 11
-89.543060561659246
 21
6.1898958836095819
 31
0.0
  0
LINE
  5
C6CFC
  8
035
 62
     3
 10
-92.142166558582275
 20
3.2089522248458051
 30
0.0
 11
-91.787837734069996
 21
3.5632810493581211
 31
0.0
  0
LINE
  5
C6CFD
  8
035
 62
     3
 10
-90.231882374075823
 20
5.1192364093522631
 30
0.0
 11
-89.161222899818554
 21
6.1898958836095819
 31
0.0
  0
LINE
  5
C6CFE
  8
035
 62
     3
 10
-90.340646078451286
 20
4.6286350431360663
 30
0.0
 11
-88.779385237977777
 21
6.1898958836095819
 31
0.0
  0
LINE
  5
C6CFF
  8
035
 62
     3
 10
-90.449409782826805
 20
4.1380336769198509
 30
0.0
 11
-88.397547576137043
 21
6.1898958836095819
 31
0.0
  0
LINE
  5
C6D00
  8
035
 62
     3
 10
-90.558173487202282
 20
3.6474323107036208
 30
0.0
 11
-88.04470713644244
 21
6.1608986614634862
 31
0.0
  0
LINE
  5
C6D01
  8
035
 62
     3
 10
-90.614815911219367
 20
3.2089522248457878
 30
0.0
 11
-88.153470840817874
 21
5.6702972952473054
 31
0.0
  0
LINE
  5
C6D02
  8
035
 62
     3
 10
-90.232978249378647
 20
3.2089522248457878
 30
0.0
 11
-88.259173978565173
 21
5.1827564956592731
 31
0.0
  0
LINE
  5
C6D03
  8
035
 62
     3
 10
-89.851140587537927
 20
3.2089522248457878
 30
0.0
 11
-87.593799393000864
 21
5.4662934193828363
 31
0.0
  0
LINE
  5
C6D04
  8
035
 62
     3
 10
-89.469302925697164
 20
3.2089522248457878
 30
0.0
 11
-86.928424807436556
 21
5.7498303431063977
 31
0.0
  0
LINE
  5
C6D05
  8
035
 62
     3
 10
-89.087465263856444
 20
3.2089522248457878
 30
0.0
 11
-88.588525658319895
 21
3.7078918303823309
 31
0.0
  0
LINE
  5
C6D06
  8
035
 62
     3
 10
-88.199885477682315
 20
4.0965320110198906
 30
0.0
 11
-86.263050221872263
 21
6.0333672668299778
 31
0.0
  0
LINE
  5
C6D07
  8
035
 62
     3
 10
-88.705627602015682
 20
3.2089522248457878
 30
0.0
 11
-88.697289362695287
 21
3.2172904641661679
 31
0.0
  0
LINE
  5
C6D08
  8
035
 62
     3
 10
-87.623879329111617
 20
4.2907004977498691
 30
0.0
 11
-85.724683943251932
 21
6.189895883609565
 31
0.0
  0
LINE
  5
C6D09
  8
035
 62
     3
 10
-87.434244541137247
 20
4.0984976238835173
 30
0.0
 11
-85.342846281411184
 21
6.189895883609565
 31
0.0
  0
LINE
  5
C6D0A
  8
035
 62
     3
 10
-87.244609753162877
 20
3.906294750017147
 30
0.0
 11
-84.961008619570464
 21
6.189895883609565
 31
0.0
  0
LINE
  5
C6D0B
  8
035
 62
     3
 10
-87.054974965188535
 20
3.7140918761507771
 30
0.0
 11
-85.648259833080488
 21
5.1208070082587964
 31
0.0
  0
LINE
  5
C6D0C
  8
035
 62
     3
 10
-85.538387135425126
 20
5.2306797059141577
 30
0.0
 11
-84.57917095772973
 21
6.189895883609565
 31
0.0
  0
LINE
  5
C6D0D
  8
035
 62
     3
 10
-86.865340177214165
 20
3.521889002284408
 30
0.0
 11
-85.458625045106118
 21
4.9286041343924261
 31
0.0
  0
LINE
  5
C6D0E
  8
035
 62
     3
 10
-84.873012549860846
 20
5.5142166296377031
 30
0.0
 11
-84.197333295888996
 21
6.189895883609565
 31
0.0
  0
LINE
  5
C6D0F
  8
035
 62
     3
 10
-86.675705389239781
 20
3.329686128418055
 30
0.0
 11
-85.268990257131748
 21
4.7364012605260557
 31
0.0
  0
LINE
  5
C6D10
  8
035
 62
     3
 10
-84.207637964296552
 20
5.7977535533612494
 30
0.0
 11
-83.815495634048219
 21
6.189895883609565
 31
0.0
  0
LINE
  5
C6D11
  8
035
 62
     3
 10
-86.414601630971276
 20
3.2089522248458051
 30
0.0
 11
-85.079355469157363
 21
4.5441983866597031
 31
0.0
  0
LINE
  5
C6D12
  8
035
 62
     3
 10
-83.542263378732287
 20
6.081290477084794
 30
0.0
 11
-83.433657972207527
 21
6.189895883609565
 31
0.0
  0
LINE
  5
C6D13
  8
035
 62
     3
 10
-86.032763969130585
 20
3.2089522248458051
 30
0.0
 11
-84.889720681183036
 21
4.3519955127933336
 31
0.0
  0
LINE
  5
C6D14
  8
035
 62
     3
 10
-85.650926307289836
 20
3.2089522248458051
 30
0.0
 11
-84.700085893208652
 21
4.159792638926981
 31
0.0
  0
LINE
  5
C6D15
  8
035
 62
     3
 10
-85.269088645449074
 20
3.2089522248458051
 30
0.0
 11
-84.510451105234267
 21
3.9675897650606111
 31
0.0
  0
LINE
  5
C6D16
  8
035
 62
     3
 10
-84.88725098360834
 20
3.2089522248458051
 30
0.0
 11
-84.320816317259897
 21
3.7753868911942421
 31
0.0
  0
LINE
  5
C6D17
  8
035
 62
     3
 10
-84.505413321767634
 20
3.2089522248458051
 30
0.0
 11
-84.131181529285513
 21
3.583184017327889
 31
0.0
  0
LINE
  5
C6D18
  8
035
 62
     3
 10
-84.123575659926871
 20
3.2089522248458051
 30
0.0
 11
-83.941546741311143
 21
3.3909811434615191
 31
0.0
  0
LINE
  5
C6D19
  8
035
 62
     3
 10
-96.613061305663678
 20
3.2089522248458051
 30
0.0
 11
-96.965390148354302
 21
3.5612810675364441
 31
0.0
  0
LINE
  5
C6D1A
  8
035
 62
     3
 10
-98.675261856174089
 20
5.2711527753562084
 30
0.0
 11
-99.594004964427455
 21
6.1898958836096334
 31
0.0
  0
LINE
  5
C6D1B
  8
035
 62
     3
 10
-97.72460619902732
 20
4.3204971182094676
 30
0.0
 11
-98.07258031798365
 21
4.6684712371658197
 31
0.0
  0
LINE
  5
C6D1C
  8
035
 62
     3
 10
-98.106443860868026
 20
4.3204971182094676
 30
0.0
 11
-98.454417979824399
 21
4.6684712371658197
 31
0.0
  0
LINE
  5
C6D1D
  8
035
 62
     3
 10
-98.744551977686982
 20
4.9586052350283722
 30
0.0
 11
-99.975842626268175
 21
6.1898958836096334
 31
0.0
  0
LINE
  5
C6D1E
  8
035
 62
     3
 10
-98.488281522708803
 20
4.3204971182094676
 30
0.0
 11
-100.3576802881089
 21
6.1898958836096334
 31
0.0
  0
LINE
  5
C6D1F
  8
035
 62
     3
 10
-98.870119184549523
 20
4.3204971182094676
 30
0.0
 11
-100.5606371063987
 21
6.0110150400586599
 31
0.0
  0
LINE
  5
C6D20
  8
035
 62
     3
 10
-98.952422342225574
 20
4.0209626140447794
 30
0.0
 11
-100.62992722791159
 21
5.69846749973079
 31
0.0
  0
LINE
  5
C6D21
  8
035
 62
     3
 10
-99.021712463738425
 20
3.708415073716909
 30
0.0
 11
-100.6992173494245
 21
5.3859199594029361
 31
0.0
  0
LINE
  5
C6D22
  8
035
 62
     3
 10
-101.2329689039609
 20
5.9196715139393881
 30
0.0
 11
-101.5031932736311
 21
6.1898958836096334
 31
0.0
  0
LINE
  5
C6D23
  8
035
 62
     3
 10
-99.091002585251275
 20
3.3958675333890391
 30
0.0
 11
-100.76850747093729
 21
5.0733724190750671
 31
0.0
  0
LINE
  5
C6D24
  8
035
 62
     3
 10
-101.3022590254737
 20
5.6071239736115022
 30
0.0
 11
-101.8850309354718
 21
6.1898958836096334
 31
0.0
  0
LINE
  5
C6D25
  8
035
 62
     3
 10
-99.285924938548845
 20
3.2089522248457878
 30
0.0
 11
-100.8377975924502
 21
4.7608248787471812
 31
0.0
  0
LINE
  5
C6D26
  8
035
 62
     3
 10
-101.5216326826216
 20
5.444659968918617
 30
0.0
 11
-102.26686859731259
 21
6.1898958836096334
 31
0.0
  0
LINE
  5
C6D27
  8
035
 62
     3
 10
-99.667762600389565
 20
3.2089522248457878
 30
0.0
 11
-100.90708771396309
 21
4.4482773384193113
 31
0.0
  0
LINE
  5
C6D28
  8
035
 62
     3
 10
-101.90347034446241
 20
5.444659968918617
 30
0.0
 11
-102.6487062591533
 21
6.1898958836096334
 31
0.0
  0
LINE
  5
C6D29
  8
035
 62
     3
 10
-100.0496002622303
 20
3.2089522248457878
 30
0.0
 11
-100.9763778354759
 21
4.1357297980914582
 31
0.0
  0
LINE
  5
C6D2A
  8
035
 62
     3
 10
-102.2853080063031
 20
5.444659968918617
 30
0.0
 11
-103.03054392099411
 21
6.1898958836096334
 31
0.0
  0
LINE
  5
C6D2B
  8
035
 62
     3
 10
-100.43143792407101
 20
3.2089522248457878
 30
0.0
 11
-101.04566795698879
 21
3.8231822577635879
 31
0.0
  0
LINE
  5
C6D2C
  8
035
 62
     3
 10
-102.6671456681438
 20
5.444659968918617
 30
0.0
 11
-103.4123815828348
 21
6.1898958836096334
 31
0.0
  0
LINE
  5
C6D2D
  8
035
 62
     3
 10
-100.8132755859117
 20
3.2089522248457878
 30
0.0
 11
-101.1149580785017
 21
3.5106347174357349
 31
0.0
  0
LINE
  5
C6D2E
  8
035
 62
     3
 10
-103.04898332998459
 20
5.444659968918617
 30
0.0
 11
-103.7942192446755
 21
6.1898958836096334
 31
0.0
  0
LINE
  5
C6D2F
  8
035
 62
     3
 10
-103.3192544181603
 20
5.3330933952536181
 30
0.0
 11
-104.17605690651629
 21
6.1898958836096334
 31
0.0
  0
LINE
  5
C6D30
  8
035
 62
     3
 10
-103.38854453967321
 20
5.020545854925782
 30
0.0
 11
-104.557894568357
 21
6.1898958836096334
 31
0.0
  0
LINE
  5
C6D31
  8
035
 62
     3
 10
-103.457834661186
 20
4.7079983145979289
 30
0.0
 11
-104.93973223019771
 21
6.1898958836096334
 31
0.0
  0
LINE
  5
C6D32
  8
035
 62
     3
 10
-103.527124782699
 20
4.3954507742700759
 30
0.0
 11
-105.3215698920385
 21
6.1898958836096334
 31
0.0
  0
LINE
  5
C6D33
  8
035
 62
     3
 10
-103.5964149042118
 20
4.0829032339422406
 30
0.0
 11
-105.7034075538792
 21
6.1898958836096334
 31
0.0
  0
LINE
  5
C6D34
  8
035
 62
     3
 10
-103.66570502572471
 20
3.7703556936143361
 30
0.0
 11
-106.08524521571999
 21
6.1898958836096334
 31
0.0
  0
LINE
  5
C6D35
  8
035
 62
     3
 10
-103.7349951472376
 20
3.4578081532865008
 30
0.0
 11
-105.4125000329236
 21
5.1353130389724777
 31
0.0
  0
LINE
  5
C6D36
  8
035
 62
     3
 10
-105.72184696286971
 20
5.444659968918617
 30
0.0
 11
-106.4670828775607
 21
6.1898958836096334
 31
0.0
  0
LINE
  5
C6D37
  8
035
 62
     3
 10
-103.8679768806377
 20
3.2089522248458562
 30
0.0
 11
-105.4817901544364
 21
4.8227654986446247
 31
0.0
  0
LINE
  5
C6D38
  8
035
 62
     3
 10
-106.1036846247104
 20
5.444659968918617
 30
0.0
 11
-106.8489205394014
 21
6.1898958836096334
 31
0.0
  0
LINE
  5
C6D39
  8
035
 62
     3
 10
-104.2498145424784
 20
3.2089522248458562
 30
0.0
 11
-105.5510802759493
 21
4.5102179583167716
 31
0.0
  0
LINE
  5
C6D3A
  8
035
 62
     3
 10
-106.4855222865511
 20
5.444659968918617
 30
0.0
 11
-107.076084717482
 21
6.035222399849518
 31
0.0
  0
LINE
  5
C6D3B
  8
035
 62
     3
 10
-104.6316522043191
 20
3.2089522248458562
 30
0.0
 11
-105.6203703974622
 21
4.1976704179889186
 31
0.0
  0
LINE
  5
C6D3C
  8
035
 62
     3
 10
-107.5893144275359
 20
6.1666144480626341
 30
0.0
 11
-107.6125958630829
 21
6.1898958836096174
 31
0.0
  0
LINE
  5
C6D3D
  8
035
 62
     3
 10
-106.86735994839189
 20
5.444659968918617
 30
0.0
 11
-107.1453748389949
 21
5.722674859521649
 31
0.0
  0
LINE
  5
C6D3E
  8
035
 62
     3
 10
-105.0134898661599
 20
3.2089522248458562
 30
0.0
 11
-105.6896605189751
 21
3.8851228776610149
 31
0.0
  0
LINE
  5
C6D3F
  8
035
 62
     3
 10
-107.6586045490488
 20
5.8540669077347474
 30
0.0
 11
-107.99443352492359
 21
6.1898958836096174
 31
0.0
  0
LINE
  5
C6D40
  8
035
 62
     3
 10
-105.39532752800061
 20
3.2089522248458562
 30
0.0
 11
-105.7589506404879
 21
3.5725753373331619
 31
0.0
  0
LINE
  5
C6D41
  8
035
 62
     3
 10
-107.7278946705616
 20
5.5415193674068943
 30
0.0
 11
-108.3762711867644
 21
6.1898958836096174
 31
0.0
  0
LINE
  5
C6D42
  8
035
 62
     3
 10
-105.7771651898414
 20
3.2089522248458562
 30
0.0
 11
-105.8282407620008
 21
3.2600277970053089
 31
0.0
  0
LINE
  5
C6D43
  8
035
 62
     3
 10
-107.7971847920745
 20
5.2289718270790413
 30
0.0
 11
-108.7581088486051
 21
6.1898958836096174
 31
0.0
  0
LINE
  5
C6D44
  8
035
 62
     3
 10
-107.8664749135874
 20
4.9164242867511891
 30
0.0
 11
-109.1399465104458
 21
6.1898958836096174
 31
0.0
  0
LINE
  5
C6D45
  8
035
 62
     3
 10
-107.9357650351003
 20
4.6038767464233361
 30
0.0
 11
-109.5217841722865
 21
6.1898958836096174
 31
0.0
  0
LINE
  5
C6D46
  8
035
 62
     3
 10
-108.0050551566132
 20
4.2913292060954493
 30
0.0
 11
-109.67832134521829
 21
5.9645953947005381
 31
0.0
  0
LINE
  5
C6D47
  8
035
 62
     3
 10
-108.074345278126
 20
3.9787816657675958
 30
0.0
 11
-109.7476114667311
 21
5.6520478543727011
 31
0.0
  0
LINE
  5
C6D48
  8
035
 62
     3
 10
-108.23186537987149
 20
3.7544641056723922
 30
0.0
 11
-109.81690158824399
 21
5.3395003140448489
 31
0.0
  0
LINE
  5
C6D49
  8
035
 62
     3
 10
-108.4674968942431
 20
3.608257958203168
 30
0.0
 11
-109.8861917097569
 21
5.0269527737170128
 31
0.0
  0
LINE
  5
C6D4A
  8
035
 62
     3
 10
-108.7252521362114
 20
3.4841755383307969
 30
0.0
 11
-109.95548183126979
 21
4.7144052333891766
 31
0.0
  0
LINE
  5
C6D4B
  8
035
 62
     3
 10
-109.0078270096099
 20
3.3849127498884708
 30
0.0
 11
-110.0247719527827
 21
4.4018576930612898
 31
0.0
  0
LINE
  5
C6D4C
  8
035
 62
     3
 10
-109.3102160670833
 20
3.305464145521201
 30
0.0
 11
-110.1459810757661
 21
4.1412291542039412
 31
0.0
  0
LINE
  5
C6D4D
  8
035
 62
     3
 10
-111.94609256548139
 20
5.9413406439192524
 30
0.0
 11
-112.1946478051717
 21
6.1898958836096174
 31
0.0
  0
LINE
  5
C6D4E
  8
035
 62
     3
 10
-109.6270622842185
 20
3.240472700815606
 30
0.0
 11
-110.38182420883339
 21
3.9952346254305739
 31
0.0
  0
LINE
  5
C6D4F
  8
035
 62
     3
 10
-112.0153826869942
 20
5.6287931035913816
 30
0.0
 11
-112.5764854670125
 21
6.1898958836096174
 31
0.0
  0
LINE
  5
C6D50
  8
035
 62
     3
 10
-109.9600312549295
 20
3.1916040096859288
 30
0.0
 11
-110.67554994914551
 21
3.907122703901885
 31
0.0
  0
LINE
  5
C6D51
  8
035
 62
     3
 10
-112.08467280850709
 20
5.3162455632635117
 30
0.0
 11
-112.95832312885319
 21
6.1898958836096174
 31
0.0
  0
LINE
  5
C6D52
  8
035
 62
     3
 10
-110.306216975018
 20
3.1559520679337161
 30
0.0
 11
-111.01583304788799
 21
3.8655681408037328
 31
0.0
  0
LINE
  5
C6D53
  8
035
 62
     3
 10
-112.15396293002
 20
5.0036980229356418
 30
0.0
 11
-113.340160790694
 21
6.1898958836096174
 31
0.0
  0
LINE
  5
C6D54
  8
035
 62
     3
 10
-110.66310066100689
 20
3.1309980920817821
 30
0.0
 11
-111.4029055697653
 21
3.8708030008402909
 31
0.0
  0
LINE
  5
C6D55
  8
035
 62
     3
 10
-112.22325305153279
 20
4.691150482607739
 30
0.0
 11
-113.72199845253471
 21
6.1898958836096174
 31
0.0
  0
LINE
  5
C6D56
  8
035
 62
     3
 10
-111.0316546162849
 20
3.1177143855190388
 30
0.0
 11
-111.87645555302009
 21
3.9625153222543159
 31
0.0
  0
LINE
  5
C6D57
  8
035
 62
     3
 10
-112.2925431730457
 20
4.3786029422798523
 30
0.0
 11
-113.96582333838479
 21
6.0518831076190533
 31
0.0
  0
LINE
  5
C6D58
  8
035
 62
     3
 10
-111.41305497107101
 20
3.1172770784644541
 30
0.0
 11
-114.0351134598977
 21
5.7393355672912012
 31
0.0
  0
LINE
  5
C6D59
  8
035
 62
     3
 10
-111.8087459043527
 20
3.131130349905427
 30
0.0
 11
-114.10440358141059
 21
5.4267880269633473
 31
0.0
  0
LINE
  5
C6D5A
  8
035
 62
     3
 10
-114.866905802177
 20
6.1892902477297378
 30
0.0
 11
-114.86751143805689
 21
6.1898958836096174
 31
0.0
  0
LINE
  5
C6D5B
  8
035
 62
     3
 10
-112.2205328597373
 20
3.1610796434493378
 30
0.0
 11
-114.1736937029235
 21
5.1142404866354951
 31
0.0
  0
LINE
  5
C6D5C
  8
035
 62
     3
 10
-114.93619592368989
 20
5.8767427074019016
 30
0.0
 11
-115.2493490998976
 21
6.1898958836096174
 31
0.0
  0
LINE
  5
C6D5D
  8
035
 62
     3
 10
-112.6513507175187
 20
3.2100598393899218
 30
0.0
 11
-114.24298382443629
 21
4.8016929463075906
 31
0.0
  0
LINE
  5
C6D5E
  8
035
 62
     3
 10
-115.103212642782
 20
5.6619217646532229
 30
0.0
 11
-115.63118676173841
 21
6.1898958836096174
 31
0.0
  0
LINE
  5
C6D5F
  8
035
 62
     3
 10
-113.11943676931431
 20
3.296308229344779
 30
0.0
 11
-114.3122739459492
 21
4.4891454059797384
 31
0.0
  0
LINE
  5
C6D60
  8
035
 62
     3
 10
-115.4850503046227
 20
5.6619217646532229
 30
0.0
 11
-116.0130244235791
 21
6.1898958836096174
 31
0.0
  0
LINE
  5
C6D61
  8
035
 62
     3
 10
-113.6532843618162
 20
3.4483181600059392
 30
0.0
 11
-114.38156406746209
 21
4.1765978656518854
 31
0.0
  0
LINE
  5
C6D62
  8
035
 62
     3
 10
-115.86688796646339
 20
5.6619217646532229
 30
0.0
 11
-116.3948620854198
 21
6.1898958836096174
 31
0.0
  0
LINE
  5
C6D63
  8
035
 62
     3
 10
-115.44210707597119
 20
4.8553032123202771
 30
0.0
 11
-115.4602149773569
 21
4.8734111137059379
 31
0.0
  0
LINE
  5
C6D64
  8
035
 62
     3
 10
-116.2487256283041
 20
5.6619217646532229
 30
0.0
 11
-116.77669974726059
 21
6.1898958836096174
 31
0.0
  0
LINE
  5
C6D65
  8
035
 62
     3
 10
-115.5113971974841
 20
4.542755671992424
 30
0.0
 11
-115.8420526391976
 21
4.8734111137059379
 31
0.0
  0
LINE
  5
C6D66
  8
035
 62
     3
 10
-116.63056329014491
 20
5.6619217646532229
 30
0.0
 11
-117.1585374091013
 21
6.1898958836096174
 31
0.0
  0
LINE
  5
C6D67
  8
035
 62
     3
 10
-115.87591618208199
 20
4.5254369947496196
 30
0.0
 11
-116.2238903010383
 21
4.8734111137059379
 31
0.0
  0
LINE
  5
C6D68
  8
035
 62
     3
 10
-117.0124009519857
 20
5.6619217646532229
 30
0.0
 11
-117.5403750709421
 21
6.1898958836096174
 31
0.0
  0
LINE
  5
C6D69
  8
035
 62
     3
 10
-115.4212267742799
 20
3.6889099251068131
 30
0.0
 11
-115.4692431929753
 21
3.736926343802164
 31
0.0
  0
LINE
  5
C6D6A
  8
035
 62
     3
 10
-117.3942386138264
 20
5.6619217646532229
 30
0.0
 11
-117.9222127327828
 21
6.1898958836096174
 31
0.0
  0
LINE
  5
C6D6B
  8
035
 62
     3
 10
-116.2577538439228
 20
4.5254369947496196
 30
0.0
 11
-116.6057279628791
 21
4.8734111137059379
 31
0.0
  0
LINE
  5
C6D6C
  8
035
 62
     3
 10
-115.49051689579279
 20
3.3763623847789761
 30
0.0
 11
-115.8510808548161
 21
3.736926343802164
 31
0.0
  0
LINE
  5
C6D6D
  8
035
 62
     3
 10
-117.77607627566709
 20
5.6619217646532229
 30
0.0
 11
-118.3040503946235
 21
6.1898958836096174
 31
0.0
  0
LINE
  5
C6D6E
  8
035
 62
     3
 10
-116.63959150576351
 20
4.5254369947496196
 30
0.0
 11
-116.98756562471981
 21
4.8734111137059379
 31
0.0
  0
LINE
  5
C6D6F
  8
035
 62
     3
 10
-115.7049443977005
 20
3.2089522248458899
 30
0.0
 11
-116.2329185166568
 21
3.736926343802164
 31
0.0
  0
LINE
  5
C6D70
  8
035
 62
     3
 10
-118.1579139375078
 20
5.6619217646532061
 30
0.0
 11
-118.68588805646419
 21
6.1898958836096174
 31
0.0
  0
LINE
  5
C6D71
  8
035
 62
     3
 10
-117.0214291676042
 20
4.5254369947496196
 30
0.0
 11
-117.3694032865606
 21
4.8734111137059379
 31
0.0
  0
LINE
  5
C6D72
  8
035
 62
     3
 10
-116.08678205954121
 20
3.2089522248458899
 30
0.0
 11
-116.6147561784975
 21
3.736926343802164
 31
0.0
  0
LINE
  5
C6D73
  8
035
 62
     3
 10
-118.52660557773071
 20
5.6487757430353627
 30
0.0
 11
-119.067725718305
 21
6.1898958836096174
 31
0.0
  0
LINE
  5
C6D74
  8
035
 62
     3
 10
-117.403266829445
 20
4.5254369947496196
 30
0.0
 11
-117.7512409484013
 21
4.8734111137059379
 31
0.0
  0
LINE
  5
C6D75
  8
035
 62
     3
 10
-116.468619721382
 20
3.2089522248458899
 30
0.0
 11
-116.99659384033821
 21
3.736926343802164
 31
0.0
  0
LINE
  5
C6D76
  8
035
 62
     3
 10
-118.5958956992436
 20
5.3362282027075114
 30
0.0
 11
-119.4495633801457
 21
6.1898958836096174
 31
0.0
  0
LINE
  5
C6D77
  8
035
 62
     3
 10
-117.78510449128569
 20
4.5254369947496196
 30
0.0
 11
-118.13307861024199
 21
4.8734111137059379
 31
0.0
  0
LINE
  5
C6D78
  8
035
 62
     3
 10
-116.8504573832227
 20
3.2089522248458899
 30
0.0
 11
-117.378431502179
 21
3.736926343802164
 31
0.0
  0
LINE
  5
C6D79
  8
035
 62
     3
 10
-118.66518582075661
 20
5.0236806623796921
 30
0.0
 11
-119.8314010419865
 21
6.1898958836096174
 31
0.0
  0
LINE
  5
C6D7A
  8
035
 62
     3
 10
-118.1669421531264
 20
4.5254369947496196
 30
0.0
 11
-118.5149162720827
 21
4.8734111137059379
 31
0.0
  0
LINE
  5
C6D7B
  8
035
 62
     3
 10
-117.2322950450634
 20
3.2089522248458899
 30
0.0
 11
-117.7602691640197
 21
3.736926343802164
 31
0.0
  0
LINE
  5
C6D7C
  8
035
 62
     3
 10
-118.5487798149672
 20
4.5254369947496196
 30
0.0
 11
-120.2132387038272
 21
6.1898958836096174
 31
0.0
  0
LINE
  5
C6D7D
  8
035
 62
     3
 10
-117.6141327069041
 20
3.2089522248458899
 30
0.0
 11
-118.14210682586049
 21
3.736926343802164
 31
0.0
  0
LINE
  5
C6D7E
  8
035
 62
     3
 10
-118.80376606378221
 20
4.3985855817239177
 30
0.0
 11
-120.4812709494682
 21
6.0760904674099123
 31
0.0
  0
LINE
  5
C6D7F
  8
035
 62
     3
 10
-117.99597036874491
 20
3.2089522248458899
 30
0.0
 11
-118.5239444877012
 21
3.736926343802164
 31
0.0
  0
LINE
  5
C6D80
  8
035
 62
     3
 10
-118.8730561852951
 20
4.086038041396014
 30
0.0
 11
-120.550561070981
 21
5.7635429270820424
 31
0.0
  0
LINE
  5
C6D81
  8
035
 62
     3
 10
-118.3778080305857
 20
3.2089522248458899
 30
0.0
 11
-118.90578214954191
 21
3.736926343802164
 31
0.0
  0
LINE
  5
C6D82
  8
035
 62
     3
 10
-118.94234630680791
 20
3.7734905010680762
 30
0.0
 11
-120.6198511924939
 21
5.4509953867541379
 31
0.0
  0
LINE
  5
C6D83
  8
035
 62
     3
 10
-118.7596456924264
 20
3.2089522248458899
 30
0.0
 11
-120.6891413140068
 21
5.1384478464262848
 31
0.0
  0
LINE
  5
C6D84
  8
035
 62
     3
 10
-121.52789375684981
 20
5.9772002892693497
 30
0.0
 11
-121.7405893511902
 21
6.1898958836096174
 31
0.0
  0
LINE
  5
C6D85
  8
035
 62
     3
 10
-119.14148335426709
 20
3.2089522248458899
 30
0.0
 11
-120.7584314355197
 21
4.8259003060984149
 31
0.0
  0
LINE
  5
C6D86
  8
035
 62
     3
 10
-121.5971838783627
 20
5.6646527489414797
 30
0.0
 11
-122.1224270130309
 21
6.1898958836096174
 31
0.0
  0
LINE
  5
C6D87
  8
035
 62
     3
 10
-119.5233210161078
 20
3.2089522248458899
 30
0.0
 11
-120.8277215570325
 21
4.5133527657705619
 31
0.0
  0
LINE
  5
C6D88
  8
035
 62
     3
 10
-121.66647399987561
 20
5.3521052086136267
 30
0.0
 11
-122.50426467487161
 21
6.1898958836096174
 31
0.0
  0
LINE
  5
C6D89
  8
035
 62
     3
 10
-119.90515867794851
 20
3.2089522248458899
 30
0.0
 11
-120.8970116785454
 21
4.200805225442692
 31
0.0
  0
LINE
  5
C6D8A
  8
035
 62
     3
 10
-121.7357641213884
 20
5.0395576682857568
 30
0.0
 11
-122.8861023367123
 21
6.1898958836096174
 31
0.0
  0
LINE
  5
C6D8B
  8
035
 62
     3
 10
-120.2869963397893
 20
3.2089522248458899
 30
0.0
 11
-120.9663018000583
 21
3.8882576851147892
 31
0.0
  0
LINE
  5
C6D8C
  8
035
 62
     3
 10
-121.80505424290131
 20
4.72701012795787
 30
0.0
 11
-123.2679399985531
 21
6.1898958836096174
 31
0.0
  0
LINE
  5
C6D8D
  8
035
 62
     3
 10
-120.6688340016301
 20
3.2089522248458899
 30
0.0
 11
-121.0355919215711
 21
3.5757101447869362
 31
0.0
  0
LINE
  5
C6D8E
  8
035
 62
     3
 10
-121.8743443644142
 20
4.4144625876300001
 30
0.0
 11
-123.5518492501002
 21
6.0919674733159939
 31
0.0
  0
LINE
  5
C6D8F
  8
035
 62
     3
 10
-121.05067166347079
 20
3.2089522248458899
 30
0.0
 11
-121.104882043084
 21
3.2631626044590658
 31
0.0
  0
LINE
  5
C6D90
  8
035
 62
     3
 10
-121.94363448592711
 20
4.1019150473021471
 30
0.0
 11
-123.621139371613
 21
5.7794199329881577
 31
0.0
  0
LINE
  5
C6D91
  8
035
 62
     3
 10
-122.0129246074399
 20
3.789367506974278
 30
0.0
 11
-123.690429493126
 21
5.4668723926603233
 31
0.0
  0
LINE
  5
C6D92
  8
035
 62
     3
 10
-122.08221472895281
 20
3.476819966646425
 30
0.0
 11
-123.7597196146388
 21
5.1543248523324703
 31
0.0
  0
LINE
  5
C6D93
  8
035
 62
     3
 10
-122.196184648993
 20
3.2089522248458731
 30
0.0
 11
-124.0004708074383
 21
5.0132383832911858
 31
0.0
  0
LINE
  5
C6D94
  8
035
 62
     3
 10
-122.5780223108337
 20
3.2089522248458731
 30
0.0
 11
-125.28893638553259
 21
5.9198662995447453
 31
0.0
  0
LINE
  5
C6D95
  8
035
 62
     3
 10
-122.95985997267439
 20
3.2089522248458731
 30
0.0
 11
-125.9408036314382
 21
6.1898958836096174
 31
0.0
  0
LINE
  5
C6D96
  8
035
 62
     3
 10
-123.3416976345152
 20
3.2089522248458731
 30
0.0
 11
-126.32264129327891
 21
6.1898958836096174
 31
0.0
  0
LINE
  5
C6D97
  8
035
 62
     3
 10
-123.72353529635591
 20
3.2089522248458731
 30
0.0
 11
-126.7044789551197
 21
6.1898958836096174
 31
0.0
  0
LINE
  5
C6D98
  8
035
 62
     3
 10
-124.1053729581967
 20
3.2089522248458731
 30
0.0
 11
-127.0863166169604
 21
6.1898958836096174
 31
0.0
  0
LINE
  5
C6D99
  8
035
 62
     3
 10
-124.6372375678725
 20
3.3589791726809062
 30
0.0
 11
-127.46815427880119
 21
6.1898958836096174
 31
0.0
  0
LINE
  5
C6D9A
  8
035
 62
     3
 10
-126.37279658281091
 20
4.7127005257787093
 30
0.0
 11
-127.8499919406419
 21
6.1898958836096174
 31
0.0
  0
LINE
  5
C6D9B
  8
035
 62
     3
 10
-126.4420867043238
 20
4.4001529854508563
 30
0.0
 11
-128.1195915900098
 21
6.0776578711368661
 31
0.0
  0
LINE
  5
C6D9C
  8
035
 62
     3
 10
-126.51137682583671
 20
4.0876054451230033
 30
0.0
 11
-128.1888817115227
 21
5.765110330808997
 31
0.0
  0
LINE
  5
C6D9D
  8
035
 62
     3
 10
-126.5806669473496
 20
3.7750579047951498
 30
0.0
 11
-128.25817183303559
 21
5.452562790481144
 31
0.0
  0
LINE
  5
C6D9E
  8
035
 62
     3
 10
-126.64995706886251
 20
3.462510364467263
 30
0.0
 11
-128.32746195454851
 21
5.1400152501532403
 31
0.0
  0
LINE
  5
C6D9F
  8
035
 62
     3
 10
-126.77823659108179
 20
3.2089522248458562
 30
0.0
 11
-128.39675207606129
 21
4.8274677098253873
 31
0.0
  0
LINE
  5
C6DA0
  8
035
 62
     3
 10
-127.1600742529226
 20
3.2089522248458562
 30
0.0
 11
-128.46604219757421
 21
4.5149201694975174
 31
0.0
  0
LINE
  5
C6DA1
  8
035
 62
     3
 10
-127.5419119147633
 20
3.2089522248458562
 30
0.0
 11
-128.53533231908699
 21
4.2023726291696644
 31
0.0
  0
LINE
  5
C6DA2
  8
035
 62
     3
 10
-127.923749576604
 20
3.2089522248458562
 30
0.0
 11
-128.60462244059991
 21
3.889825088841794
 31
0.0
  0
LINE
  5
C6DA3
  8
035
 62
     3
 10
-128.30558723844479
 20
3.2089522248458562
 30
0.0
 11
-128.6739125621128
 21
3.5772775485139068
 31
0.0
  0
LINE
  5
C6DA4
  8
035
 62
     3
 10
-128.68742490028549
 20
3.2089522248458562
 30
0.0
 11
-128.7432026836257
 21
3.2647300081860369
 31
0.0
  0
LINE
  5
C6DA5
  8
035
 62
     3
 10
-96.231223643822929
 20
3.2089522248458051
 30
0.0
 11
-96.940841439738634
 21
3.9185700207615151
 31
0.0
  0
LINE
  5
C6DA6
  8
035
 62
     3
 10
-98.605971734661182
 20
5.5837003156840259
 30
0.0
 11
-99.212167302586721
 21
6.1898958836096334
 31
0.0
  0
LINE
  5
C6DA7
  8
035
 62
     3
 10
-97.342768537186572
 20
4.3204971182094676
 30
0.0
 11
-97.690742656142945
 21
4.6684712371658197
 31
0.0
  0
LINE
  5
C6DA8
  8
035
 62
     3
 10
-95.849385981982195
 20
3.2089522248458051
 30
0.0
 11
-97.308904994302225
 21
4.6684712371658197
 31
0.0
  0
LINE
  5
C6DA9
  8
035
 62
     3
 10
-98.302355521789593
 20
5.6619217646532229
 30
0.0
 11
-98.830329640746015
 21
6.1898958836096334
 31
0.0
  0
LINE
  5
C6DAA
  8
035
 62
     3
 10
-95.467548320141489
 20
3.2089522248458051
 30
0.0
 11
-96.984585575061033
 21
4.7259894797653912
 31
0.0
  0
LINE
  5
C6DAB
  8
035
 62
     3
 10
-97.920517859948887
 20
5.6619217646532229
 30
0.0
 11
-98.448491978905267
 21
6.1898958836096334
 31
0.0
  0
LINE
  5
C6DAC
  8
035
 62
     3
 10
-95.085710658300727
 20
3.2089522248458051
 30
0.0
 11
-96.740957636544096
 21
4.8641992030891661
 31
0.0
  0
LINE
  5
C6DAD
  8
035
 62
     3
 10
-97.538680198108111
 20
5.6619217646532229
 30
0.0
 11
-98.066654317064518
 21
6.1898958836096334
 31
0.0
  0
LINE
  5
C6DAE
  8
035
 62
     3
 10
-94.914728699623311
 20
3.4198079280091429
 30
0.0
 11
-96.575214785996877
 21
5.0802940143826918
 31
0.0
  0
LINE
  5
C6DAF
  8
035
 62
     3
 10
-97.156842536267405
 20
5.6619217646532229
 30
0.0
 11
-97.684816655223784
 21
6.1898958836096334
 31
0.0
  0
LINE
  5
C6DB0
  8
035
 62
     3
 10
-94.900068663499383
 20
3.7869855537259429
 30
0.0
 11
-96.590830025266996
 21
5.4777469154935572
 31
0.0
  0
LINE
  5
C6DB1
  8
035
 62
     3
 10
-96.738496525139198
 20
5.6254134153657516
 30
0.0
 11
-97.302978993383064
 21
6.1898958836096334
 31
0.0
  0
LINE
  5
C6DB2
  8
035
 62
     3
 10
-94.875113040297464
 20
4.1438675923647299
 30
0.0
 11
-96.921141331542316
 21
6.1898958836096334
 31
0.0
  0
LINE
  5
C6DB3
  8
035
 62
     3
 10
-93.558360010937804
 20
3.2089522248458051
 30
0.0
 11
-93.850928447779424
 21
3.5015206616874219
 31
0.0
  0
LINE
  5
C6DB4
  8
035
 62
     3
 10
-94.944496635760501
 20
4.5950888496684943
 30
0.0
 11
-96.53930366970161
 21
6.1898958836096334
 31
0.0
  0
LINE
  5
C6DB5
  8
035
 62
     3
 10
-93.176522349097041
 20
3.2089522248458051
 30
0.0
 11
-93.781638326266517
 21
3.8140682020153092
 31
0.0
  0
LINE
  5
C6DB6
  8
035
 62
     3
 10
-94.710395049216615
 20
4.7428249249653636
 30
0.0
 11
-96.157466007860805
 21
6.1898958836096334
 31
0.0
  0
LINE
  5
C6DB7
  8
035
 62
     3
 10
-92.794684687256279
 20
3.2089522248458051
 30
0.0
 11
-93.712348204753653
 21
4.1266157423431791
 31
0.0
  0
LINE
  5
C6DB8
  8
035
 62
     3
 10
-94.508091781483131
 20
4.9223593190726449
 30
0.0
 11
-95.775628346020099
 21
6.1898958836096334
 31
0.0
  0
LINE
  5
C6DB9
  8
035
 62
     3
 10
-92.412847025415573
 20
3.2089522248458051
 30
0.0
 11
-93.643058083240817
 21
4.4391632826710321
 31
0.0
  0
LINE
  5
C6DBA
  8
035
 62
     3
 10
-94.346020451787695
 20
5.1421256512179214
 30
0.0
 11
-95.393790684179379
 21
6.1898958836096334
 31
0.0
  0
LINE
  5
C6DBB
  8
035
 62
     3
 10
-92.031009363574839
 20
3.2089522248458051
 30
0.0
 11
-93.573767961727924
 21
4.7517108229988851
 31
0.0
  0
LINE
  5
C6DBC
  8
035
 62
     3
 10
-94.24335226951132
 20
5.4212951307822923
 30
0.0
 11
-94.981921626520815
 21
6.159864487791789
 31
0.0
  0
LINE
  5
C6DBD
  8
035
 62
     3
 10
-91.826972954529055
 20
3.3867534776407431
 30
0.0
 11
-93.50447784021506
 21
5.0642583633267382
 31
0.0
  0
LINE
  5
C6DBE
  8
035
 62
     3
 10
-91.757682833016204
 20
3.6993010179686481
 30
0.0
 11
-93.435187718702167
 21
5.376805903654641
 31
0.0
  0
LINE
  5
C6DBF
  8
035
 62
     3
 10
-91.68839271150334
 20
4.0118485582965011
 30
0.0
 11
-93.365897597189317
 21
5.6893534439824931
 31
0.0
  0
LINE
  5
C6DC0
  8
035
 62
     3
 10
-90.503658716211859
 20
3.2089522248457878
 30
0.0
 11
-90.627849702994155
 21
3.3331432116281259
 31
0.0
  0
LINE
  5
C6DC1
  8
035
 62
     3
 10
-91.619102589990447
 20
4.324396098624371
 30
0.0
 11
-93.296607475676424
 21
6.001900984310347
 31
0.0
  0
LINE
  5
C6DC2
  8
035
 62
     3
 10
-90.121821054371168
 20
3.2089522248457878
 30
0.0
 11
-90.558559581481319
 21
3.6456907519559789
 31
0.0
  0
LINE
  5
C6DC3
  8
035
 62
     3
 10
-91.549812468477583
 20
4.6369436389522232
 30
0.0
 11
-93.102764713134974
 21
6.1898958836095481
 31
0.0
  0
LINE
  5
C6DC4
  8
035
 62
     3
 10
-89.739983392530462
 20
3.2089522248457878
 30
0.0
 11
-90.489269459968455
 21
3.9582382922838319
 31
0.0
  0
LINE
  5
C6DC5
  8
035
 62
     3
 10
-91.480522346964733
 20
4.9494911792800762
 30
0.0
 11
-92.720927051294225
 21
6.1898958836095481
 31
0.0
  0
LINE
  5
C6DC6
  8
035
 62
     3
 10
-89.358145730689671
 20
3.2089522248457878
 30
0.0
 11
-90.419979338455548
 21
4.2707858326117192
 31
0.0
  0
LINE
  5
C6DC7
  8
035
 62
     3
 10
-91.411232225451869
 20
5.2620387196079799
 30
0.0
 11
-92.339089389453449
 21
6.1898958836095481
 31
0.0
  0
LINE
  5
C6DC8
  8
035
 62
     3
 10
-88.976308068848937
 20
3.2089522248457878
 30
0.0
 11
-90.350689216942698
 21
4.5833333729395722
 31
0.0
  0
LINE
  5
C6DC9
  8
035
 62
     3
 10
-91.341942103938976
 20
5.574586259935832
 30
0.0
 11
-91.957251727612729
 21
6.1898958836095481
 31
0.0
  0
LINE
  5
C6DCA
  8
035
 62
     3
 10
-88.68014443182048
 20
3.2946262496580712
 30
0.0
 11
-90.281399095429805
 21
4.8958809132674244
 31
0.0
  0
LINE
  5
C6DCB
  8
035
 62
     3
 10
-91.272651982426112
 20
5.8871338002637019
 30
0.0
 11
-91.57541406577198
 21
6.1898958836095481
 31
0.0
  0
LINE
  5
C6DCC
  8
035
 62
     3
 10
-88.610854310307616
 20
3.6071737899859411
 30
0.0
 11
-90.212108973916955
 21
5.2084284535952774
 31
0.0
  0
LINE
  5
C6DCD
  8
035
 62
     3
 10
-88.54156418879478
 20
3.9197213303138279
 30
0.0
 11
-90.142818852404048
 21
5.5209759939231304
 31
0.0
  0
LINE
  5
C6DCE
  8
035
 62
     3
 10
-88.295705358999641
 20
4.0557001623594617
 30
0.0
 11
-90.073528730891198
 21
5.8335235342510341
 31
0.0
  0
LINE
  5
C6DCF
  8
035
 62
     3
 10
-88.027961661601765
 20
4.1697941268023184
 30
0.0
 11
-90.004238609378305
 21
6.1460710745788871
 31
0.0
  0
LINE
  5
C6DD0
  8
035
 62
     3
 10
-87.760217964203889
 20
4.2838880912451742
 30
0.0
 11
-89.666225756568281
 21
6.1898958836095819
 31
0.0
  0
LINE
  5
C6DD1
  8
035
 62
     3
 10
-86.303444435963826
 20
3.2089522248458051
 30
0.0
 11
-89.284388094727575
 21
6.1898958836095819
 31
0.0
  0
LINE
  5
C6DD2
  8
035
 62
     3
 10
-85.921606774123106
 20
3.2089522248458051
 30
0.0
 11
-88.004104239355826
 21
5.2914496900785446
 31
0.0
  0
LINE
  5
C6DD3
  8
035
 62
     3
 10
-88.195113581230316
 20
5.4824590319530406
 30
0.0
 11
-88.902550432886841
 21
6.1898958836095819
 31
0.0
  0
LINE
  5
C6DD4
  8
035
 62
     3
 10
-85.539769112282315
 20
3.2089522248458051
 30
0.0
 11
-87.736360541957964
 21
5.4055436545214182
 31
0.0
  0
LINE
  5
C6DD5
  8
035
 62
     3
 10
-88.125823459717466
 20
5.7950065722809452
 30
0.0
 11
-88.520712771046078
 21
6.1898958836095819
 31
0.0
  0
LINE
  5
C6DD6
  8
035
 62
     3
 10
-85.157931450441581
 20
3.2089522248458051
 30
0.0
 11
-87.468616844560074
 21
5.5196376189642899
 31
0.0
  0
LINE
  5
C6DD7
  8
035
 62
     3
 10
-88.056533338204616
 20
6.1075541126088151
 30
0.0
 11
-88.138875109205344
 21
6.1898958836095819
 31
0.0
  0
LINE
  5
C6DD8
  8
035
 62
     3
 10
-84.776093788600846
 20
3.2089522248458051
 30
0.0
 11
-87.200873147162241
 21
5.6337315834071626
 31
0.0
  0
LINE
  5
C6DD9
  8
035
 62
     3
 10
-84.394256126760155
 20
3.2089522248458051
 30
0.0
 11
-86.933129449764394
 21
5.7478255478500362
 31
0.0
  0
LINE
  5
C6DDA
  8
035
 62
     3
 10
-84.012418464919421
 20
3.2089522248458051
 30
0.0
 11
-86.665385752366532
 21
5.861919512292908
 31
0.0
  0
LINE
  5
C6DDB
  8
035
 62
     3
 10
-85.618268385021025
 20
5.1966398067881547
 30
0.0
 11
-86.397642054968628
 21
5.9760134767357806
 31
0.0
  0
LINE
  5
C6DDC
  8
035
 62
     3
 10
-85.350524687623135
 20
5.3107337712310283
 30
0.0
 11
-86.129898357570795
 21
6.0901074411786542
 31
0.0
  0
LINE
  5
C6DDD
  8
035
 62
     3
 10
-85.082780990225316
 20
5.4248277356738832
 30
0.0
 11
-85.847849138160925
 21
6.189895883609565
 31
0.0
  0
LINE
  5
C6DDE
  8
035
 62
     3
 10
-84.815037292827441
 20
5.538921700116755
 30
0.0
 11
-85.46601147632019
 21
6.189895883609565
 31
0.0
  0
LINE
  5
C6DDF
  8
035
 62
     3
 10
-84.547293595429551
 20
5.6530156645596117
 30
0.0
 11
-85.084173814479456
 21
6.189895883609565
 31
0.0
  0
LINE
  5
C6DE0
  8
035
 62
     3
 10
-84.279549898031675
 20
5.7671096290025012
 30
0.0
 11
-84.702336152638694
 21
6.189895883609565
 31
0.0
  0
LINE
  5
C6DE1
  8
035
 62
     3
 10
-84.011806200633814
 20
5.881203593445357
 30
0.0
 11
-84.320498490797988
 21
6.189895883609565
 31
0.0
  0
LINE
  5
C6DE2
  8
035
 62
     3
 10
-83.744062503235924
 20
5.9952975578882297
 30
0.0
 11
-83.938660828957254
 21
6.189895883609565
 31
0.0
  0
LINE
  5
C6DE3
  8
035
 62
     3
 10
-83.476318805838105
 20
6.1093915223310846
 30
0.0
 11
-83.556823167116534
 21
6.189895883609565
 31
0.0
  0
ENDBLK
  5
C6DE5
  8
0
  0
BLOCK
  8
0
  2
*X4
 70
     1
 10
0.0
 20
0.0
 30
0.0
  3
*X4
  1

  0
LINE
  5
C8778
  8
0
 62
     0
 10
218.04933407442809
 20
330.47931228308909
 30
0.0
 11
222.85332656153901
 21
335.2833047702
 31
0.0
  0
LINE
  5
C8779
  8
0
 62
     0
 10
222.85332656153909
 20
335.28330477020012
 30
0.0
 11
224.7993340744282
 21
337.2293122830892
 31
0.0
  0
LINE
  5
C877A
  8
0
 62
     0
 10
218.04933407442809
 20
332.6006326266488
 30
0.0
 11
220.7320062179794
 21
335.2833047702
 31
0.0
  0
LINE
  5
C877B
  8
0
 62
     0
 10
220.7320062179794
 20
335.28330477020012
 30
0.0
 11
224.7993340744282
 21
339.35063262664892
 31
0.0
  0
LINE
  5
C877C
  8
0
 62
     0
 10
218.04933407442809
 20
334.72195297020852
 30
0.0
 11
218.61068587441969
 21
335.2833047702
 31
0.0
  0
LINE
  5
C877D
  8
0
 62
     0
 10
218.6106858744198
 20
335.28330477020012
 30
0.0
 11
224.7993340744282
 21
341.47195297020858
 31
0.0
  0
LINE
  5
C877E
  8
0
 62
     0
 10
218.0493340744282
 20
336.84327331376818
 30
0.0
 11
224.79933407442829
 21
343.59327331376818
 31
0.0
  0
LINE
  5
C877F
  8
0
 62
     0
 10
218.0493340744282
 20
338.96459365732778
 30
0.0
 11
223.8180451873005
 21
344.73330477020022
 31
0.0
  0
LINE
  5
C8780
  8
0
 62
     0
 10
218.04933407442829
 20
341.0859140008875
 30
0.0
 11
221.6967248437409
 21
344.73330477020022
 31
0.0
  0
LINE
  5
C8781
  8
0
 62
     0
 10
218.04933407442829
 20
343.20723434444722
 30
0.0
 11
219.57540450018121
 21
344.73330477020022
 31
0.0
  0
LINE
  5
C8782
  8
0
 62
     0
 10
218.04933407442809
 20
328.35799193952943
 30
0.0
 11
224.79933407442809
 21
335.10799193952948
 31
0.0
  0
LINE
  5
C8783
  8
0
 62
     0
 10
218.049334074428
 20
326.23667159596982
 30
0.0
 11
224.79933407442809
 21
332.98667159596988
 31
0.0
  0
LINE
  5
C8784
  8
0
 62
     0
 10
219.767287592218
 20
325.83330477020007
 30
0.0
 11
224.799334074428
 21
330.86535125241022
 31
0.0
  0
LINE
  5
C8785
  8
0
 62
     0
 10
221.8886079357776
 20
325.83330477020007
 30
0.0
 11
224.799334074428
 21
328.7440309088505
 31
0.0
  0
LINE
  5
C8786
  8
0
 62
     0
 10
224.00992827933729
 20
325.83330477020007
 30
0.0
 11
224.799334074428
 21
326.62271056529079
 31
0.0
  0
LINE
  5
C8787
  8
0
 62
     0
 10
224.799334074428
 20
330.98659593819832
 30
0.0
 11
220.50262524242629
 21
335.2833047702
 31
0.0
  0
LINE
  5
C8788
  8
0
 62
     0
 10
220.50262524242621
 20
335.28330477020012
 30
0.0
 11
218.0493340744282
 21
337.73659593819809
 31
0.0
  0
LINE
  5
C8789
  8
0
 62
     0
 10
224.799334074428
 20
328.86527559463872
 30
0.0
 11
218.38130489886669
 21
335.2833047702
 31
0.0
  0
LINE
  5
C878A
  8
0
 62
     0
 10
218.3813048988666
 20
335.28330477020012
 30
0.0
 11
218.0493340744282
 21
335.61527559463849
 31
0.0
  0
LINE
  5
C878B
  8
0
 62
     0
 10
224.799334074428
 20
326.743955251079
 30
0.0
 11
218.04933407442809
 21
333.49395525107889
 31
0.0
  0
LINE
  5
C878C
  8
0
 62
     0
 10
223.5886642117473
 20
325.83330477020007
 30
0.0
 11
218.04933407442809
 21
331.37263490751928
 31
0.0
  0
LINE
  5
C878D
  8
0
 62
     0
 10
221.46734386818761
 20
325.83330477020007
 30
0.0
 11
218.04933407442809
 21
329.25131456395968
 31
0.0
  0
LINE
  5
C878E
  8
0
 62
     0
 10
219.34602352462801
 20
325.83330477020007
 30
0.0
 11
218.049334074428
 21
327.12999422040008
 31
0.0
  0
LINE
  5
C878F
  8
0
 62
     0
 10
224.79933407442809
 20
333.10791628175792
 30
0.0
 11
222.62394558598589
 21
335.28330477020012
 31
0.0
  0
LINE
  5
C8790
  8
0
 62
     0
 10
222.62394558598589
 20
335.28330477020012
 30
0.0
 11
218.0493340744282
 21
339.8579162817577
 31
0.0
  0
LINE
  5
C8791
  8
0
 62
     0
 10
224.79933407442809
 20
335.22923662531753
 30
0.0
 11
224.7452659295455
 21
335.28330477020012
 31
0.0
  0
LINE
  5
C8792
  8
0
 62
     0
 10
224.74526592954561
 20
335.28330477020012
 30
0.0
 11
218.04933407442829
 21
341.9792366253173
 31
0.0
  0
LINE
  5
C8793
  8
0
 62
     0
 10
224.7993340744282
 20
337.35055696887707
 30
0.0
 11
218.04933407442829
 21
344.1005569688769
 31
0.0
  0
LINE
  5
C8794
  8
0
 62
     0
 10
224.7993340744282
 20
339.47187731243667
 30
0.0
 11
219.5379066166648
 21
344.73330477020022
 31
0.0
  0
LINE
  5
C8795
  8
0
 62
     0
 10
224.79933407442829
 20
341.59319765599628
 30
0.0
 11
221.6592269602244
 21
344.73330477020022
 31
0.0
  0
LINE
  5
C8796
  8
0
 62
     0
 10
224.79933407442829
 20
343.71451799955588
 30
0.0
 11
223.780547303784
 21
344.73330477020022
 31
0.0
  0
ENDBLK
  5
C8798
  8
0
  0
BLOCK
  8
0
  2
A$C3FE66B72
 70
     0
 10
0.0
 20
0.0
 30
0.0
  3
A$C3FE66B72
  1

  0
LINE
  5
C879A
  8
BEM1
 10
17.015920771868309
 20
0.8674234872528359
 30
0.0
 11
89.966119061875133
 21
0.8674234872526085
 31
0.0
  0
LINE
  5
C879B
  8
MITTE
 10
90.861353362320756
 20
28.497781175029111
 30
0.0
 11
16.129883672127789
 21
28.497781175029111
 31
0.0
  0
POLYLINE
  5
C879C
  8
05
 66
     1
 10
0.0
 20
0.0
 30
0.0
  0
VERTEX
  5
C8B0A
  8
05
 10
47.534400484046152
 20
25.315158937570232
 30
0.0
  0
VERTEX
  5
C8B0B
  8
05
 10
23.92259103970321
 20
25.31515893756978
 30
0.0
 42
-0.2511109629816597
  0
VERTEX
  5
C8B0C
  8
05
 10
23.499204685668531
 20
25.542103208073058
 30
0.0
 42
0.4752690738780415
  0
VERTEX
  5
C8B0D
  8
05
 10
21.144984264378991
 20
25.770611868364089
 30
0.0
  0
VERTEX
  5
C8B0E
  8
05
 10
20.932977546252339
 20
25.556398484885001
 30
0.0
 42
-0.3978783114542253
  0
VERTEX
  5
C8B0F
  8
05
 10
19.81591489300121
 20
25.519272191781511
 30
0.0
  0
VERTEX
  5
C8B10
  8
05
 10
17.309310534538149
 20
27.736110526352601
 30
0.0
 42
-0.4505772583718065
  0
VERTEX
  5
C8B11
  8
05
 10
17.309310534538149
 20
29.259451823705831
 30
0.0
  0
VERTEX
  5
C8B12
  8
05
 10
19.81591489300121
 20
31.476290158277148
 30
0.0
 42
-0.3978783114542251
  0
VERTEX
  5
C8B13
  8
05
 10
20.932977546252339
 20
31.439163865173221
 30
0.0
  0
VERTEX
  5
C8B14
  8
05
 10
21.144984264378991
 20
31.224950481695029
 30
0.0
 42
0.4752690738783136
  0
VERTEX
  5
C8B15
  8
05
 10
23.499204685668531
 20
31.453459141986968
 30
0.0
 42
-0.251110962981905
  0
VERTEX
  5
C8B16
  8
05
 10
23.922591039706671
 20
31.680403412488211
 30
0.0
  0
VERTEX
  5
C8B17
  8
05
 10
47.534400484046152
 20
31.680403412488211
 30
0.0
  0
SEQEND
  5
C8B18
  8
05
  0
LINE
  5
C879D
  8
BEM1
 10
17.015920771868309
 20
26.346275480385891
 30
0.0
 11
17.015920771868309
 21
-0.000000250911171
 31
0.0
  0
SOLID
  5
C879E
  8
BEM1
 10
5.3500555285215512
 20
21.464377024351482
 30
0.0
 11
4.1833888618548647
 21
21.464377024351482
 31
0.0
 12
4.7667221951882084
 22
24.964377024351482
 32
0.0
 13
4.7667221951882084
 23
24.964377024351482
 33
0.0
  0
INSERT
  5
C879F
  8
05
  2
*U11
 10
0.0
 20
0.0
 30
0.0
  0
LINE
  5
C87A0
  8
BEM1
 10
4.7667221951882084
 20
31.290680359355861
 30
0.0
 11
4.7667221951882084
 21
19.97801532680262
 31
0.0
  0
SOLID
  5
C87A1
  8
BEM1
 10
19.92457380688256
 20
1.3521989930886771
 30
0.0
 11
19.92457380688256
 21
0.3826479814169943
 31
0.0
 12
17.015920771868309
 22
0.8674234872528359
 32
0.0
 13
17.015920771868309
 23
0.8674234872528359
 33
0.0
  0
LINE
  5
C87A2
  8
BEM1
 10
16.106293819922339
 20
24.96437702435151
 30
0.0
 11
10.556061184511121
 21
24.96437702435151
 31
0.0
  0
LINE
  5
C87A3
  8
BEM1
 10
18.940929587772981
 20
32.031185325706247
 30
0.0
 11
10.384404888446049
 21
32.031185325706247
 31
0.0
  0
SOLID
  5
C87A4
  8
BEM1
 10
5.3500555285215512
 20
35.531185325706247
 30
0.0
 11
4.1833888618548647
 21
35.531185325706247
 31
0.0
 12
4.7667221951882084
 22
32.031185325706247
 32
0.0
 13
4.7667221951882084
 23
32.031185325706247
 33
0.0
  0
LINE
  5
C87A5
  8
BEM1
 10
4.7667221951882084
 20
34.179562961156478
 30
0.0
 11
4.7667221951882084
 21
36.979562961156489
 31
0.0
  0
INSERT
  5
C87A6
  8
05
  2
*U12
 10
0.0
 20
0.0
 30
0.0
  0
LINE
  5
C87A7
  8
BEM1
 10
6.0929879242106599
 20
24.96437702435151
 30
0.0
 11
4.125083224468824
 21
24.96437702435151
 31
0.0
  0
LINE
  5
C87A8
  8
BEM1
 10
6.0929879242106457
 20
32.031185325706247
 30
0.0
 11
4.125083224468824
 21
32.031185325706247
 31
0.0
  0
LINE
  5
C87A9
  8
025
 62
     5
 10
23.63931339769238
 20
29.108461237487749
 30
0.0
 11
23.63931339769238
 21
25.70733112067046
 31
0.0
  0
LINE
  5
C87AA
  8
BEM1
 10
19.315855885967689
 20
24.96437702435151
 30
0.0
 11
17.708422083228349
 21
24.96437702435151
 31
0.0
  0
LINE
  5
C87AB
  8
025
 62
     5
 10
20.29964123898856
 20
28.83154783494069
 30
0.0
 11
20.29964123898856
 21
27.171541390258881
 31
0.0
  0
LINE
  5
C87AC
  8
025
 62
     5
 10
23.63931339769238
 20
31.275309748667269
 30
0.0
 11
23.63931339769238
 21
29.437602796317151
 31
0.0
  0
LINE
  5
C87AD
  8
035
 10
22.229045623559841
 20
30.77262633047917
 30
0.0
 11
22.229045623559841
 21
30.77262633047917
 31
0.0
  0
LINE
  5
C87AE
  8
035
 10
22.229045623559841
 20
30.77262633047917
 30
0.0
 11
22.229045623559841
 21
30.77262633047917
 31
0.0
  0
LINE
  5
C87AF
  8
025
 62
     5
 10
20.29964123898856
 20
30.783177841375618
 30
0.0
 11
20.29964123898856
 21
29.72884946488966
 31
0.0
  0
LINE
  5
C87B0
  8
035
 62
     5
 10
20.29964123898856
 20
31.388856922941621
 30
0.0
 11
20.29964123898856
 21
31.029936473635871
 31
0.0
  0
INSERT
  5
C87B1
  8
025
  6
CONTINUOUS
  2
*U13
 10
0.0
 20
0.0
 30
0.0
1001
ACAD
1002
{
1000
R14_HATCH_DATA
1000
C87B1
1011
1.0
1021
0.0
1031
0.0
1021
0.0
1031
0.0
1011
0.0
1021
0.0
1031
0.0
1021
1.0
1031
0.0
1011
0.0
1021
0.0
1031
0.0
1021
0.0
1031
1.0
1040
0.0
1010
0.0
1020
0.0
1030
1.0
1000
SOLID
1070
     1
1070
     1
1071
        2
1071
        7
1070
     0
1070
     1
1071
        4
1040
26.181343938793589
1040
31.680403412488179
1040
24.656125614133551
1040
31.680403412488229
1040
24.656125614133551
1040
28.497781175029129
1040
26.181343938793589
1040
28.497781175029111
1071
        4
1005
C879C
1005
C87B3
1005
C879B
1005
C87B2
1071
        7
1070
     0
1070
     1
1071
        4
1040
26.181343938793589
1040
28.497781175029111
1040
24.656125614133551
1040
28.497781175029129
1040
24.656125614133551
1040
25.31515893756978
1040
26.181343938793589
1040
25.315158937569809
1071
        4
1005
C879B
1005
C87B3
1005
C879C
1005
C87B2
1070
     0
1070
     1
1040
0.0697440144618462
1071
        2
1040
25.777019940491019
1040
30.10610210769801
1040
0.0
1040
25.777019940491019
1040
27.99845358438802
1040
0.0
1002
}
  0
LINE
  5
C87B2
  8
SCHRAFFIERT
 62
     4
 10
26.181343938793589
 20
31.680403412488211
 30
0.0
 11
26.181343938793589
 21
25.315158937570232
 31
0.0
  0
LINE
  5
C87B3
  8
SCHRAFFIERT
 62
     4
 10
24.656125614133551
 20
31.680403412488211
 30
0.0
 11
24.656125614133551
 21
25.315158937570232
 31
0.0
  0
LINE
  5
C87B4
  8
BEM1
 10
90.839310269593739
 20
22.091864211453409
 30
0.0
 11
104.13078080009279
 21
22.091864211453409
 31
0.0
  0
LINE
  5
C87B5
  8
BEM1
 10
88.965758955292586
 20
34.903698138605023
 30
0.0
 11
104.13078080009279
 21
34.903698138605023
 31
0.0
  0
LINE
  5
C87B6
  8
BEM1
 10
89.966119061875133
 20
23.732241114346149
 30
0.0
 11
89.966119061875133
 21
-0.0000002509113983
 31
0.0
  0
POLYLINE
  5
C87B7
  8
010
 66
     1
 10
0.0
 20
0.0
 30
0.0
  0
VERTEX
  5
C8B34
  8
010
 10
58.983756896842287
 20
24.093920166833868
 30
0.0
  0
VERTEX
  5
C8B35
  8
010
 10
57.712741626291177
 20
23.410878093306572
 30
0.0
  0
VERTEX
  5
C8B36
  8
010
 10
57.70743191699006
 20
22.8247834401277
 30
0.0
  0
VERTEX
  5
C8B37
  8
010
 10
60.249462458091273
 20
22.255937621043358
 30
0.0
  0
VERTEX
  5
C8B38
  8
010
 10
60.249462458091273
 20
22.73149900321414
 30
0.0
  0
VERTEX
  5
C8B39
  8
010
 10
58.6738401833951
 20
23.084085696774761
 30
0.0
  0
VERTEX
  5
C8B3A
  8
010
 10
60.254772167392389
 20
23.93367663834351
 30
0.0
  0
VERTEX
  5
C8B3B
  8
010
 10
60.254772167392389
 20
24.336888811005789
 30
0.0
  0
VERTEX
  5
C8B3C
  8
010
 10
57.712741626291177
 20
24.905734630089679
 30
0.0
  0
VERTEX
  5
C8B3D
  8
010
 10
57.712741626291177
 20
24.370761924520369
 30
0.0
  0
VERTEX
  5
C8B3E
  8
010
 10
58.983756896842287
 20
24.08633901497819
 30
0.0
  0
SEQEND
  5
C8B3F
  8
010
  0
LINE
  5
C87B8
  8
035
 10
48.55121270048744
 20
34.09024836545268
 30
0.0
 11
48.55121270048744
 21
22.905313984605979
 31
0.0
  0
LINE
  5
C87B9
  8
05
 10
48.55121270048744
 20
22.905313984605979
 30
0.0
 11
47.534400484046152
 21
23.922126201046702
 31
0.0
  0
INSERT
  5
C87BA
  8
010
 62
     5
  2
*X4
 10
-71.805008571359167
 20
-198.78232566424481
 30
0.0
 41
0.6778748109603893
 42
0.6778748109603893
 43
0.6778748109603893
1001
ACAD
1000
HATCH
1002
{
1070
    16
1000
ANSI37,I
1040
12.0
1040
0.0
1002
}
  0
LINE
  5
C87BB
  8
010
 10
80.580797518364989
 20
34.903698138605023
 30
0.0
 11
80.580797518364989
 21
22.091864211453409
 31
0.0
  0
LINE
  5
C87BC
  8
010
 10
76.005142544382579
 20
34.903698138605023
 30
0.0
 11
76.005142544382579
 21
22.091864211453409
 31
0.0
  0
POLYLINE
  5
C87BD
  8
05
 66
     1
 10
0.0
 20
0.0
 30
0.0
 70
     1
  0
VERTEX
  5
C8B40
  8
05
 10
48.754575143774439
 20
34.903698138605023
 30
0.0
  0
VERTEX
  5
C8B41
  8
05
 10
86.915682412553849
 20
34.903698138605023
 30
0.0
 42
-0.4142135623730951
  0
VERTEX
  5
C8B42
  8
05
 10
89.966119061875133
 20
31.85326148928289
 30
0.0
  0
VERTEX
  5
C8B43
  8
05
 10
89.966119061875133
 20
24.188277843516062
 30
0.0
 42
-0.1474011068017676
  0
VERTEX
  5
C8B44
  8
05
 10
89.831832556175513
 20
23.617082536112321
 30
0.0
 42
-0.2679491924308884
  0
VERTEX
  5
C8B45
  8
05
 10
87.190076925228823
 20
22.091864211453409
 30
0.0
  0
VERTEX
  5
C8B46
  8
05
 10
48.754575143775583
 20
22.091864211453409
 30
0.0
  0
VERTEX
  5
C8B47
  8
05
 10
48.551212700487334
 20
22.295226654741779
 30
0.0
  0
VERTEX
  5
C8B48
  8
05
 10
48.551212700487334
 20
34.70033569531688
 30
0.0
  0
SEQEND
  5
C8B49
  8
05
  0
TEXT
  5
C87BE
  8
BEM1
 62
     3
 10
58.48730254064273
 20
9.0375806012968951
 30
0.0
 40
3.5
  1
44.0
 41
0.7
 51
15.0
 72
     1
 11
61.958135873976062
 21
10.78758060129689
 31
0.0
 73
     2
  0
INSERT
  5
C87BF
  8
05
  2
*U14
 10
0.0
 20
0.0
 30
0.0
  0
LINE
  5
C87C0
  8
BEM1
 10
47.534400484046152
 20
8.2586711996827944
 30
0.0
 11
89.966119061875133
 21
8.2586711996827944
 31
0.0
  0
SOLID
  5
C87C1
  8
BEM1
 10
50.44305351906155
 20
8.743446705518636
 30
0.0
 11
50.44305351906155
 21
7.7738956938469519
 31
0.0
 12
47.534400484046152
 22
8.2586711996827944
 32
0.0
 13
47.534400484046152
 23
8.2586711996827944
 33
0.0
  0
TEXT
  5
C87C2
  8
BEM1
 62
     3
 10
43.277792209735793
 20
1.9708241049138451
 30
0.0
 40
3.5
  1
74.0
 41
0.7
 51
15.0
 72
     1
 11
46.748625543069117
 21
3.7208241049138451
 31
0.0
 73
     2
  0
LINE
  5
C87C3
  8
BEM1
 10
47.534400484046152
 20
21.986508154231839
 30
0.0
 11
47.534400484046152
 21
7.5839594339672649
 31
0.0
  0
POLYLINE
  5
C87C4
  8
BEM1
 66
     1
 10
0.0
 20
0.0
 30
0.0
  0
VERTEX
  5
C8B4E
  8
BEM1
 10
42.969044692090897
 20
4.3850801492521887
 30
0.0
 42
-0.4024063827417454
  0
VERTEX
  5
C8B4F
  8
BEM1
 10
41.203314880794601
 20
4.1221434182377834
 30
0.0
  0
VERTEX
  5
C8B50
  8
BEM1
 10
40.889637767335607
 20
4.3448199810586621
 30
0.0
 42
0.4035996268185247
  0
VERTEX
  5
C8B51
  8
BEM1
 10
39.48421101012304
 20
4.1325860673036914
 30
0.0
  0
SEQEND
  5
C8B52
  8
BEM1
  0
POLYLINE
  5
C87C5
  8
BEM1
 66
     1
 10
0.0
 20
0.0
 30
0.0
  0
VERTEX
  5
C8B53
  8
BEM1
 10
42.969044692090897
 20
3.546907929225426
 30
0.0
 42
-0.4024063827417455
  0
VERTEX
  5
C8B54
  8
BEM1
 10
41.203314880794601
 20
3.2839711982110198
 30
0.0
  0
VERTEX
  5
C8B55
  8
BEM1
 10
40.889637767335607
 20
3.506647761031672
 30
0.0
 42
0.4035996268185248
  0
VERTEX
  5
C8B56
  8
BEM1
 10
39.48421101012304
 20
3.2944138472771551
 30
0.0
  0
SEQEND
  5
C8B57
  8
BEM1
  0
INSERT
  5
C87C6
  8
05
  2
*U15
 10
0.0
 20
0.0
 30
0.0
  0
SOLID
  5
C87C7
  8
BEM1
 10
87.057466026860766
 20
1.3521989930884499
 30
0.0
 11
87.057466026860766
 21
0.3826479814167669
 31
0.0
 12
89.966119061875133
 22
0.8674234872526085
 32
0.0
 13
89.966119061875133
 23
0.8674234872526085
 33
0.0
  0
SOLID
  5
C87C8
  8
BEM1
 10
87.057466026860766
 20
8.743446705518636
 30
0.0
 11
87.057466026860766
 21
7.7738956938469519
 31
0.0
 12
89.966119061875133
 22
8.2586711996827944
 32
0.0
 13
89.966119061875133
 23
8.2586711996827944
 33
0.0
  0
LINE
  5
C87C9
  8
010
 10
47.534400484046152
 20
30.148091929022939
 30
0.0
 11
48.55121270048744
 21
29.85062776661152
 31
0.0
  0
LINE
  5
C87CA
  8
010
 10
47.534400484046152
 20
31.138708436885739
 30
0.0
 11
48.55121270048744
 21
31.040154498770558
 31
0.0
  0
LINE
  5
C87CB
  8
05
 10
48.55121270048744
 20
34.09024836545268
 30
0.0
 11
47.534400484046152
 21
33.073436149011741
 31
0.0
  0
LINE
  5
C87CC
  8
010
 10
47.534400484046152
 20
32.802607412036188
 30
0.0
 11
48.55121270048744
 21
32.946622617822868
 31
0.0
  0
LINE
  5
C87CD
  8
010
 10
47.534400484046152
 20
32.084712643683361
 30
0.0
 11
48.55121270048744
 21
32.032858702615158
 31
0.0
  0
LINE
  5
C87CE
  8
010
 10
47.534400484046152
 20
28.990381036052899
 30
0.0
 11
48.55121270048744
 21
28.551825119210211
 31
0.0
  0
LINE
  5
C87CF
  8
010
 10
47.534400484046152
 20
27.789225477082478
 30
0.0
 11
48.55121270048744
 21
26.96383693320627
 31
0.0
  0
LINE
  5
C87D0
  8
010
 10
47.534400484046152
 20
26.779543315297818
 30
0.0
 11
48.55121270048744
 21
25.782941566267478
 31
0.0
  0
LINE
  5
C87D1
  8
010
 10
47.534400484046152
 20
24.34535886058757
 30
0.0
 11
47.958029889607808
 21
23.498496795484471
 31
0.0
  0
LINE
  5
C87D2
  8
010
 10
47.534400484046152
 20
25.566968890394492
 30
0.0
 11
48.55121270048744
 21
24.074901169163919
 31
0.0
  0
LINE
  5
C87D3
  8
05
 10
47.534400484046152
 20
33.073436149011741
 30
0.0
 11
47.534400484046152
 21
23.922126201046702
 31
0.0
  0
LINE
  5
C87D4
  8
010
 10
47.905345792050518
 20
33.444381457016341
 30
0.0
 11
48.55121270048744
 21
33.554005608864827
 31
0.0
  0
POLYLINE
  5
C87D5
  8
010
 66
     1
 10
0.0
 20
0.0
 30
0.0
 70
     1
  0
VERTEX
  5
C8B5C
  8
010
 10
59.059613810351657
 20
29.84196717139821
 30
0.0
  0
VERTEX
  5
C8B5D
  8
010
 10
57.712741626291177
 20
30.143365049336811
 30
0.0
  0
VERTEX
  5
C8B5E
  8
010
 10
57.712741626291177
 20
29.198298245461501
 30
0.0
  0
VERTEX
  5
C8B5F
  8
010
 10
59.635342729518413
 20
28.768065963963181
 30
0.0
 42
0.4802663138757075
  0
VERTEX
  5
C8B60
  8
010
 10
60.254772167392389
 20
29.264201621971779
 30
0.0
  0
VERTEX
  5
C8B61
  8
010
 10
60.254772167392389
 20
31.26343122297294
 30
0.0
 42
0.3511082304936738
  0
VERTEX
  5
C8B62
  8
010
 10
59.857389388827528
 20
31.759566880981541
 30
0.0
  0
VERTEX
  5
C8B63
  8
010
 10
57.712741626291177
 20
32.239487910017722
 30
0.0
  0
VERTEX
  5
C8B64
  8
010
 10
57.712741626291177
 20
31.51678723696887
 30
0.0
  0
VERTEX
  5
C8B65
  8
010
 10
59.281660469661801
 20
31.165700611492412
 30
0.0
 42
-0.3511082304936738
  0
VERTEX
  5
C8B66
  8
010
 10
59.679043248226769
 20
30.66956495348359
 30
0.0
  0
VERTEX
  5
C8B67
  8
010
 10
59.679043248226769
 20
30.338102829407489
 30
0.0
 42
-0.4802663138757075
  0
SEQEND
  5
C8B68
  8
010
  0
POLYLINE
  5
C87D6
  8
010
 66
     1
 10
0.0
 20
0.0
 30
0.0
 70
     1
  0
VERTEX
  5
C8B69
  8
010
 10
59.144439075722339
 20
25.954424510926628
 30
0.0
  0
VERTEX
  5
C8B6A
  8
010
 10
59.144439075722339
 20
27.945158788324079
 30
0.0
  0
VERTEX
  5
C8B6B
  8
010
 10
58.842867341368503
 20
28.012643351341239
 30
0.0
  0
VERTEX
  5
C8B6C
  8
010
 10
58.842867341368503
 20
26.021909073943341
 30
0.0
  0
VERTEX
  5
C8B6D
  8
010
 10
58.21993124925433
 20
26.16130731712952
 30
0.0
  0
VERTEX
  5
C8B6E
  8
010
 10
58.21993124925433
 20
28.15121011528413
 30
0.0
  0
VERTEX
  5
C8B6F
  8
010
 10
57.712741626291177
 20
28.264707058708161
 30
0.0
  0
VERTEX
  5
C8B70
  8
010
 10
57.712741626291177
 20
25.58727528503232
 30
0.0
  0
VERTEX
  5
C8B71
  8
010
 10
60.254772167392389
 20
25.018429465947978
 30
0.0
  0
VERTEX
  5
C8B72
  8
010
 10
60.254772167392389
 20
27.695861239624261
 30
0.0
  0
VERTEX
  5
C8B73
  8
010
 10
59.679043248226769
 20
27.824695643183532
 30
0.0
  0
VERTEX
  5
C8B74
  8
010
 10
59.679043248226769
 20
25.834792845028911
 30
0.0
  0
SEQEND
  5
C8B75
  8
010
  0
POLYLINE
  5
C87D7
  8
010
 66
     1
 10
0.0
 20
0.0
 30
0.0
 70
     1
  0
VERTEX
  5
C8B76
  8
010
 10
58.21993124925433
 20
32.785602047777502
 30
0.0
  0
VERTEX
  5
C8B77
  8
010
 10
57.712741626291177
 20
32.899098991201299
 30
0.0
  0
VERTEX
  5
C8B78
  8
010
 10
57.712741626291177
 20
34.715945226674648
 30
0.0
  0
VERTEX
  5
C8B79
  8
010
 10
58.21993124925433
 20
34.602448283250851
 30
0.0
  0
VERTEX
  5
C8B7A
  8
010
 10
58.21993124925433
 20
33.991307555550982
 30
0.0
  0
VERTEX
  5
C8B7B
  8
010
 10
60.254772167392389
 20
33.535958679890662
 30
0.0
  0
VERTEX
  5
C8B7C
  8
010
 10
60.254772167392389
 20
33.121922053775279
 30
0.0
  0
VERTEX
  5
C8B7D
  8
010
 10
58.21993124925433
 20
33.577270929435599
 30
0.0
  0
SEQEND
  5
C8B7E
  8
010
  0
INSERT
  5
C87D8
  8
05
  2
*U16
 10
0.0
 20
0.0
 30
0.0
  0
SOLID
  5
C87D9
  8
BEM1
 10
103.8095816261096
 20
24.957323101669768
 30
0.0
 11
102.85442866270419
 21
24.957323101669768
 31
0.0
 12
103.33200514440701
 22
22.091864211453409
 32
0.0
 13
103.33200514440701
 23
22.091864211453409
 33
0.0
  0
SOLID
  5
C87DA
  8
BEM1
 10
103.8095816261096
 20
32.03823924838867
 30
0.0
 11
102.85442866270419
 21
32.03823924838867
 31
0.0
 12
103.33200514440701
 22
34.903698138605023
 32
0.0
 13
103.33200514440701
 23
34.903698138605023
 33
0.0
  0
LINE
  5
C87DB
  8
BEM1
 10
103.33200514440701
 20
34.903698138605023
 30
0.0
 11
103.33200514440701
 21
23.310547453673738
 31
0.0
  0
TEXT
  5
C87DC
  8
BEM1
 62
     3
 10
102.0783359257302
 20
23.594054516055738
 30
0.0
 40
3.5
  1
%%c12.5
 50
90.0
 41
0.7
 51
15.0
 72
     1
 11
100.3283359257302
 21
28.085721182722409
 31
0.0
 73
     2
  0
ENDBLK
  5
C87DE
  8
0
  0
BLOCK
  8
0
  2
ZKOPF-REAN
 70
     2
 10
0.0
 20
0.0
 30
0.0
  3
ZKOPF-REAN
  1

  0
TEXT
  5
C882A
  8
035
 10
517.65315784783218
 20
512.84858999021753
 30
0.0
 40
3.5
  1
  
 41
0.7
 51
15.0
  0
TEXT
  5
C882B
  8
035
 10
517.65315784783218
 20
512.84858999021753
 30
0.0
 40
3.5
  1
  
 41
0.7
 51
15.0
  0
TEXT
  5
C882C
  8
035
 10
517.65315784783218
 20
512.84858999021753
 30
0.0
 40
3.5
  1
  
 41
0.7
 51
15.0
  0
TEXT
  5
C882D
  8
035
 10
517.65315784783218
 20
512.84858999021753
 30
0.0
 40
3.5
  1
  
 41
0.7
 51
15.0
  0
TEXT
  5
C882E
  8
035
 10
517.65315784783218
 20
512.84858999021753
 30
0.0
 40
3.5
  1
  
 41
0.7
 51
15.0
  0
TEXT
  5
C882F
  8
035
 10
517.65315784783218
 20
512.84858999021753
 30
0.0
 40
3.5
  1
  
 41
0.7
 51
15.0
  0
TEXT
  5
C8830
  8
035
 10
517.65315784783218
 20
512.84858999021753
 30
0.0
 40
3.5
  1
  
 41
0.7
 51
15.0
  0
TEXT
  5
C8831
  8
035
 10
517.65315784783218
 20
512.84858999021753
 30
0.0
 40
3.5
  1
  
 41
0.7
 51
15.0
  0
TEXT
  5
C8832
  8
035
 10
517.65315784783218
 20
512.84858999021753
 30
0.0
 40
3.5
  1
  
 41
0.7
 51
15.0
  0
TEXT
  5
C8833
  8
035
 10
517.65315784783218
 20
512.84858999021753
 30
0.0
 40
3.5
  1
  
 41
0.7
 51
15.0
  0
TEXT
  5
C8834
  8
035
 10
517.65315784783218
 20
512.84858999021753
 30
0.0
 40
3.5
  1
  
 41
0.7
 51
15.0
  0
TEXT
  5
C8835
  8
035
 10
517.65315784783218
 20
512.84858999021753
 30
0.0
 40
3.5
  1
  
 41
0.7
 51
15.0
  0
ATTDEF
  5
C8836
  8
0
 62
     4
 10
-15.166666666666661
 20
37.0
 30
0.0
 40
2.5
  1
Battlogg
  7
SCRIPTS
 72
     1
 11
-8.5
 21
37.0
 31
0.0
  3
Name des Konstrukteurs ?
  2
NAME
 70
     0
  0
POLYLINE
  5
C8837
  8
0
 62
     2
 66
     1
 10
0.0
 20
0.0
 30
0.0
  0
VERTEX
  5
C8B83
  8
0
 62
     2
 10
-51.0
 20
0.0
 30
0.0
  0
VERTEX
  5
C8B84
  8
0
 62
     2
 10
-51.0
 20
46.0
 30
0.0
  0
SEQEND
  5
C8B85
  8
0
 62
     2
  0
POLYLINE
  5
C8838
  8
0
 62
     2
 66
     1
 10
0.0
 20
0.0
 30
0.0
  0
VERTEX
  5
C8B86
  8
0
 62
     2
 10
-17.0
 20
9.0
 30
0.0
  0
VERTEX
  5
C8B87
  8
0
 62
     2
 10
-17.0
 20
46.0
 30
0.0
  0
SEQEND
  5
C8B88
  8
0
 62
     2
  0
POLYLINE
  5
C8839
  8
0
 62
     2
 66
     1
 10
0.0
 20
0.0
 30
0.0
  0
VERTEX
  5
C8B89
  8
0
 62
     2
 10
-32.0
 20
26.0
 30
0.0
  0
VERTEX
  5
C8B8A
  8
0
 62
     2
 10
-32.0
 20
46.0
 30
0.0
  0
SEQEND
  5
C8B8B
  8
0
 62
     2
  0
POLYLINE
  5
C883A
  8
0
 62
     2
 66
     1
 10
0.0
 20
0.0
 30
0.0
  0
VERTEX
  5
C8B8C
  8
0
 62
     2
 10
-133.0
 20
41.0
 30
0.0
  0
VERTEX
  5
C8B8D
  8
0
 62
     2
 10
-92.0
 20
41.0
 30
0.0
  0
SEQEND
  5
C8B8E
  8
0
 62
     2
  0
POLYLINE
  5
C883B
  8
0
 62
     2
 66
     1
 10
0.0
 20
0.0
 30
0.0
  0
VERTEX
  5
C8B8F
  8
0
 62
     2
 10
-145.0
 20
0.0
 30
0.0
  0
VERTEX
  5
C8B90
  8
0
 62
     2
 10
-145.0
 20
46.0
 30
0.0
  0
SEQEND
  5
C8B91
  8
0
 62
     2
  0
POLYLINE
  5
C883C
  8
0
 62
     2
 66
     1
 10
0.0
 20
0.0
 30
0.0
  0
VERTEX
  5
C8B92
  8
0
 62
     2
 10
-158.0
 20
0.0
 30
0.0
  0
VERTEX
  5
C8B93
  8
0
 62
     2
 10
-158.0
 20
46.0
 30
0.0
  0
SEQEND
  5
C8B94
  8
0
 62
     2
  0
LINE
  5
C883D
  8
0
 62
     2
 10
-200.0
 20
6.0
 30
0.0
 11
-133.0
 21
6.0
 31
0.0
  0
POLYLINE
  5
C883E
  8
0
 62
     4
 66
     1
 10
0.0
 20
0.0
 30
0.0
  0
VERTEX
  5
C8B95
  8
0
 62
     4
 10
-200.0
 20
11.0
 30
0.0
  0
VERTEX
  5
C8B96
  8
0
 62
     4
 10
-133.0
 20
11.0
 30
0.0
  0
SEQEND
  5
C8B97
  8
0
 62
     4
  0
POLYLINE
  5
C883F
  8
0
 62
     4
 66
     1
 10
0.0
 20
0.0
 30
0.0
  0
VERTEX
  5
C8B98
  8
0
 62
     4
 10
-200.0
 20
16.0
 30
0.0
  0
VERTEX
  5
C8B99
  8
0
 62
     4
 10
-133.0
 20
16.0
 30
0.0
  0
SEQEND
  5
C8B9A
  8
0
 62
     4
  0
POLYLINE
  5
C8840
  8
0
 62
     4
 66
     1
 10
0.0
 20
0.0
 30
0.0
  0
VERTEX
  5
C8B9B
  8
0
 62
     4
 10
-200.0
 20
21.0
 30
0.0
  0
VERTEX
  5
C8B9C
  8
0
 62
     4
 10
-133.0
 20
21.0
 30
0.0
  0
SEQEND
  5
C8B9D
  8
0
 62
     4
  0
POLYLINE
  5
C8841
  8
0
 62
     4
 66
     1
 10
0.0
 20
0.0
 30
0.0
  0
VERTEX
  5
C8B9E
  8
0
 62
     4
 10
-200.0
 20
26.0
 30
0.0
  0
VERTEX
  5
C8B9F
  8
0
 62
     4
 10
-133.0
 20
26.0
 30
0.0
  0
SEQEND
  5
C8BA0
  8
0
 62
     4
  0
POLYLINE
  5
C8842
  8
0
 62
     4
 66
     1
 10
0.0
 20
0.0
 30
0.0
  0
VERTEX
  5
C8BA1
  8
0
 62
     4
 10
-200.0
 20
31.0
 30
0.0
  0
VERTEX
  5
C8BA2
  8
0
 62
     4
 10
-133.0
 20
31.0
 30
0.0
  0
SEQEND
  5
C8BA3
  8
0
 62
     4
  0
POLYLINE
  5
C8843
  8
0
 62
     4
 66
     1
 10
0.0
 20
0.0
 30
0.0
  0
VERTEX
  5
C8BA4
  8
0
 62
     4
 10
-200.0
 20
36.0
 30
0.0
  0
VERTEX
  5
C8BA5
  8
0
 62
     4
 10
-133.0
 20
36.0
 30
0.0
  0
SEQEND
  5
C8BA6
  8
0
 62
     4
  0
POLYLINE
  5
C8844
  8
0
 62
     4
 66
     1
 10
0.0
 20
0.0
 30
0.0
  0
VERTEX
  5
C8BA7
  8
0
 62
     4
 10
-200.0
 20
41.0
 30
0.0
  0
VERTEX
  5
C8BA8
  8
0
 62
     4
 10
-133.0
 20
41.0
 30
0.0
  0
SEQEND
  5
C8BA9
  8
0
 62
     4
  0
TEXT
  5
C8845
  8
0
 62
     4
 10
-50.0
 20
6.0
 30
0.0
 40
1.5
  1
Zeichn. Nr.
 51
15.0
  0
TEXT
  5
C8846
  8
0
 62
     4
 10
-50.0
 20
23.0
 30
0.0
 40
1.5
  1
Ersetzt durch:         Blatt
 51
15.0
  0
TEXT
  5
C8847
  8
0
 62
     4
 10
-50.0
 20
38.0
 30
0.0
 40
1.5
  1
Gezeichnet
 51
15.0
  0
TEXT
  5
C8848
  8
0
 62
     4
 10
-50.0
 20
27.0
 30
0.0
 40
1.5
  1
Gesehen
 51
15.0
  0
TEXT
  5
C8849
  8
0
 62
     4
 10
-31.0
 20
42.0
 30
0.0
 40
1.5
  1
Datum     Name
 51
15.0
  0
TEXT
  5
C884A
  8
0
 62
     4
 10
-91.0
 20
42.0
 30
0.0
 40
1.5
  1
Werkstoff:      Massstab:
 51
15.0
  0
TEXT
  5
C884B
  8
0
 62
     4
 10
-132.0
 20
23.0
 30
0.0
 40
1.5
  1
Benennung:
 51
15.0
  0
LINE
  5
C884C
  8
0
 62
     2
 10
-133.0
 20
33.0
 30
0.0
 11
-92.0
 21
33.0
 31
0.0
  0
TEXT
  5
C884D
  8
0
 62
     4
 10
-132.0
 20
39.0
 30
0.0
 40
1.5
  1
*)Lieferant darf ohne 
 51
15.0
  0
TEXT
  5
C884E
  8
0
 62
     4
 10
-132.0
 20
36.5
 30
0.0
 40
1.5
  1
 Ruecksprache nicht 
 51
15.0
  0
TEXT
  5
C884F
  8
0
 62
     4
 10
-132.0
 20
34.0
 30
0.0
 40
1.5
  1
 geaendert werden
 51
15.0
  0
TEXT
  5
C8850
  8
0
 62
     4
 10
-132.0
 20
30.0
 30
0.0
 40
1.5
  1
Zeichnung urheberrechtlich
 51
15.0
  0
TEXT
  5
C8851
  8
0
 62
     4
 10
-132.0
 20
27.5
 30
0.0
 40
1.5
  1
geschuetzt (DIN 34) (C)
 51
15.0
  0
TEXT
  5
C8852
  8
0
 62
     4
 10
-50.0
 20
32.0
 30
0.0
 40
1.5
  1
Geprueft
 51
15.0
  0
TEXT
  5
C8853
  8
0
 62
     4
 10
-50.0
 20
15.0
 30
0.0
 40
1.5
  1
Ersatz fuer:           von  Blatt
 51
15.0
  0
TEXT
  5
C8854
  8
0
 62
     4
 10
-197.0
 20
1.0
 30
0.0
 40
1.5
  1
Ind.  Aenderung             Datum    Name
 51
15.0
  0
ATTDEF
  5
C8855
  8
0
 62
     4
 10
-30.770833333333329
 20
37.0
 30
0.0
 40
2.5
  1
03.11.2004
 41
0.7
 51
15.0
 72
     1
 11
-24.5
 21
37.0
 31
0.0
  3
Datum der Zeichnung ?
  2
DATE
 70
     0
  0
ATTDEF
  5
C8856
  8
0
 62
     4
 10
-80.5
 20
36.0
 30
0.0
 40
2.5
  1

 41
0.7
 51
15.0
 72
     1
 11
-80.5
 21
36.0
 31
0.0
  3
Aus welchem Werkstoff ?
  2
WERKSTOFF
 70
     0
  0
ATTDEF
  5
C8857
  8
0
 62
     2
 10
-92.0
 20
12.5
 30
0.0
 40
5.0
  1

 41
0.7
 51
15.0
 72
     1
 11
-92.0
 21
12.5
 31
0.0
  3
Zeichnungsname ?
  2
BENENNUNG
 70
     0
  0
ATTDEF
  5
C8858
  8
0
 62
     3
 10
-90.265456601878626
 20
21.082191450526931
 30
0.0
 40
3.5
  1
()
 41
0.7
 51
15.0
 72
     1
 11
-89.040456601878617
 21
21.082191450526931
 31
0.0
  3
Zu welchem Produkt ?
  2
TEIL
 70
     0
  0
ATTDEF
  5
C8859
  8
0
 62
     3
 10
-20.550219082576412
 20
1.9765410165377939
 30
0.0
 40
3.5
  1

 41
0.7
 51
15.0
 72
     1
 11
-20.550219082576412
 21
1.9765410165377939
 31
0.0
  3
Zeichnungsnummer ?
  2
NUMMER
 70
     0
  0
ATTDEF
  5
C885A
  8
0
 62
     2
 10
-62.89933830414278
 20
34.656056232934532
 30
0.0
 40
5.0
  1
1:1
 41
0.7
 51
15.0
 72
     1
 11
-60.566004970809438
 21
34.656056232934532
 31
0.0
  3
Hauptmassstab:
  2
MASS
 70
     0
  0
ATTDEF
  5
C885B
  8
0
 62
     3
 10
-60.480700945980033
 20
28.210450539175302
 30
0.0
 40
3.5
  1

 41
0.7
 51
15.0
 72
     1
 11
-60.480700945980033
 21
28.210450539175302
 31
0.0
  3
Nebenmassstab:
  2
MASS2
 70
     0
  0
ATTDEF
  5
C885C
  8
0
 62
     4
 10
-81.0
 20
29.0
 30
0.0
 40
2.5
  1

 41
0.7
 51
15.0
 72
     1
 11
-81.0
 21
29.0
 31
0.0
  3
Werkstoffzusatz:
  2
TEIL
 70
     0
  0
ATTDEF
  5
C885D
  8
0
 62
     3
 10
-107.7114519405618
 20
59.004318747429437
 30
0.0
 40
3.5
  1
Freimasstoleranzen %%p0.1
 41
0.7
 51
15.0
  3
Freimasstoleranzen:
  2
TOL
 70
     0
  0
ATTDEF
  5
C885E
  8
0
 62
     3
 10
-107.7114519405618
 20
54.004318747429437
 30
0.0
 40
3.5
  1
nicht bemasste Radien R=0.2
 41
0.7
 51
15.0
  3
Nicht bemasste Radien:
  2
RADIEN
 70
     0
  0
ATTDEF
  5
C885F
  8
0
 62
     3
 10
-107.7114519405618
 20
49.004318747429437
 30
0.0
 40
3.5
  1
nicht bemasste Facetten 0.5 x 45%%D
 41
0.7
 51
15.0
  3
nicht bemasste Facetten:
  2
FACETTE
 70
     0
  0
POLYLINE
  5
C8860
  8
0
 62
     2
 66
     1
 10
0.0
 20
0.0
 30
0.0
  0
VERTEX
  5
C8BAA
  8
0
 62
     2
 10
-191.0
 20
0.0
 30
0.0
  0
VERTEX
  5
C8BAB
  8
0
 62
     2
 10
-191.0
 20
46.0
 30
0.0
  0
SEQEND
  5
C8BAC
  8
0
 62
     2
  0
POLYLINE
  5
C8861
  8
0
 62
     2
 66
     1
 10
0.0
 20
0.0
 30
0.0
  0
VERTEX
  5
C8BAD
  8
0
 62
     2
 10
-133.0
 20
0.0
 30
0.0
  0
VERTEX
  5
C8BAE
  8
0
 62
     2
 10
-133.0
 20
46.0
 30
0.0
  0
SEQEND
  5
C8BAF
  8
0
 62
     2
  0
POLYLINE
  5
C8862
  8
0
 62
     2
 66
     1
 10
0.0
 20
0.0
 30
0.0
  0
VERTEX
  5
C8BB0
  8
0
 62
     2
 10
-92.0
 20
26.0
 30
0.0
  0
VERTEX
  5
C8BB1
  8
0
 62
     2
 10
-92.0
 20
46.0
 30
0.0
  0
SEQEND
  5
C8BB2
  8
0
 62
     2
  0
POLYLINE
  5
C8863
  8
0
 62
     2
 66
     1
 10
0.0
 20
0.0
 30
0.0
  0
VERTEX
  5
C8BB3
  8
0
 62
     2
 10
-69.0
 20
26.0
 30
0.0
  0
VERTEX
  5
C8BB4
  8
0
 62
     2
 10
-69.0
 20
46.0
 30
0.0
  0
SEQEND
  5
C8BB5
  8
0
 62
     2
  0
ATTDEF
  5
C8864
  8
0
 62
     4
 10
-197.1862672583826
 20
7.0
 30
0.0
 40
2.5
  1

 41
0.7
 51
15.0
  3
Index1:
  2
INDEX1
 70
     0
  0
ATTDEF
  5
C8865
  8
0
 62
     4
 10
-190.34874260355031
 20
7.0
 30
0.0
 40
2.5
  1

 41
0.7
 51
15.0
  3
Aenderung1:
  2
A1
 70
     0
  0
ATTDEF
  5
C8866
  8
0
 62
     4
 10
-157.34874260355031
 20
7.0
 30
0.0
 40
2.5
  1

 41
0.7
 51
15.0
  3
Datum1:
  2
DATUM1
 70
     0
  0
ATTDEF
  5
C8867
  8
0
 62
     4
 10
-144.46499013806701
 20
7.0
 30
0.0
 40
2.5
  1

 41
0.7
 51
15.0
  3
Name1:
  2
NAME1
 70
     0
  0
ATTDEF
  5
C8868
  8
0
 62
     4
 10
-197.1862672583826
 20
12.0
 30
0.0
 40
2.5
  1

 41
0.7
 51
15.0
  3
Index2:
  2
INDEX2
 70
     0
  0
ATTDEF
  5
C8869
  8
0
 62
     4
 10
-190.34874260355031
 20
12.0
 30
0.0
 40
2.5
  1

 41
0.7
 51
15.0
  3
Aenderung2:
  2
A2
 70
     0
  0
ATTDEF
  5
C886A
  8
0
 62
     4
 10
-157.34874260355031
 20
12.0
 30
0.0
 40
2.5
  1

 41
0.7
 51
15.0
  3
Datum2:
  2
DATUM2
 70
     0
  0
ATTDEF
  5
C886B
  8
0
 62
     4
 10
-144.46499013806701
 20
12.0
 30
0.0
 40
2.5
  1

 41
0.7
 51
15.0
  3
Name2
  2
NAME2
 70
     0
  0
ATTDEF
  5
C886C
  8
0
 62
     4
 10
-197.1862672583826
 20
17.0
 30
0.0
 40
2.5
  1

 41
0.7
 51
15.0
  3
Index3:
  2
INDEX3
 70
     0
  0
ATTDEF
  5
C886D
  8
0
 62
     4
 10
-190.34874260355031
 20
17.0
 30
0.0
 40
2.5
  1

 41
0.7
 51
15.0
  3
Aenderung3
  2
A3
 70
     0
  0
ATTDEF
  5
C886E
  8
0
 62
     4
 10
-157.34874260355031
 20
17.0
 30
0.0
 40
2.5
  1

 41
0.7
 51
15.0
  3
Datum3:
  2
DATUM3
 70
     0
  0
ATTDEF
  5
C886F
  8
0
 62
     4
 10
-144.46499013806701
 20
17.0
 30
0.0
 40
2.5
  1

 41
0.7
 51
15.0
  3
Name3:
  2
NAME3
 70
     0
  0
ATTDEF
  5
C8870
  8
0
 62
     4
 10
-197.1862672583826
 20
22.0
 30
0.0
 40
2.5
  1

 41
0.7
 51
15.0
  3
Index4:
  2
INDEX4
 70
     0
  0
ATTDEF
  5
C8871
  8
0
 62
     4
 10
-190.34874260355031
 20
22.0
 30
0.0
 40
2.5
  1

 41
0.7
 51
15.0
  3
Aenderung4:
  2
A4
 70
     0
  0
ATTDEF
  5
C8872
  8
0
 62
     4
 10
-157.34874260355031
 20
22.0
 30
0.0
 40
2.5
  1

 41
0.7
 51
15.0
  3
Datum4:
  2
DATUM4
 70
     0
  0
ATTDEF
  5
C8873
  8
0
 62
     4
 10
-144.46499013806701
 20
22.0
 30
0.0
 40
2.5
  1

 41
0.7
 51
15.0
  3
Name4:
  2
NAME4
 70
     0
  0
ATTDEF
  5
C8874
  8
0
 62
     4
 10
-197.1862672583826
 20
27.0
 30
0.0
 40
2.5
  1

 41
0.7
 51
15.0
  3
Index5:
  2
INDEX5
 70
     0
  0
ATTDEF
  5
C8875
  8
0
 62
     4
 10
-190.34874260355031
 20
27.0
 30
0.0
 40
2.5
  1

 41
0.7
 51
15.0
  3
Aenderung5:
  2
A5
 70
     0
  0
ATTDEF
  5
C8876
  8
0
 62
     4
 10
-157.34874260355031
 20
27.0
 30
0.0
 40
2.5
  1

 41
0.7
 51
15.0
  3
Datum5:
  2
DATUM5
 70
     0
  0
ATTDEF
  5
C8877
  8
0
 62
     4
 10
-144.46499013806701
 20
27.0
 30
0.0
 40
2.5
  1

 41
0.7
 51
15.0
  3
Name5
  2
NAME5
 70
     0
  0
ATTDEF
  5
C8878
  8
0
 62
     4
 10
-197.1862672583826
 20
32.0
 30
0.0
 40
2.5
  1

 41
0.7
 51
15.0
  3
Index6:
  2
INDEX6
 70
     0
  0
ATTDEF
  5
C8879
  8
0
 62
     4
 10
-190.34874260355031
 20
32.0
 30
0.0
 40
2.5
  1

 41
0.7
 51
15.0
  3
Aenderung6:
  2
A6
 70
     0
  0
ATTDEF
  5
C887A
  8
0
 62
     4
 10
-157.34874260355031
 20
32.0
 30
0.0
 40
2.5
  1

 41
0.7
 51
15.0
  3
Datum6:
  2
DATUM6
 70
     0
  0
ATTDEF
  5
C887B
  8
0
 62
     4
 10
-144.46499013806701
 20
32.0
 30
0.0
 40
2.5
  1

 41
0.7
 51
15.0
  3
Name6:
  2
NAME6
 70
     0
  0
ATTDEF
  5
C887C
  8
0
 62
     4
 10
-197.1862672583826
 20
37.0
 30
0.0
 40
2.5
  1

 41
0.7
 51
15.0
  3
Index7:
  2
INDEX7
 70
     0
  0
ATTDEF
  5
C887D
  8
0
 62
     4
 10
-190.34874260355031
 20
37.0
 30
0.0
 40
2.5
  1

 41
0.7
 51
15.0
  3
Aenderung7:
  2
A7
 70
     0
  0
ATTDEF
  5
C887E
  8
0
 62
     4
 10
-157.34874260355031
 20
37.0
 30
0.0
 40
2.5
  1

 41
0.7
 51
15.0
  3
Datum7:
  2
DATUM7
 70
     0
  0
ATTDEF
  5
C887F
  8
0
 62
     4
 10
-144.46499013806701
 20
37.0
 30
0.0
 40
2.5
  1

 41
0.7
 51
15.0
  3
Name7:
  2
NAME7
 70
     0
  0
ATTDEF
  5
C8880
  8
0
 62
     4
 10
-197.1862672583826
 20
42.0
 30
0.0
 40
2.5
  1

 41
0.7
 51
15.0
  3
Index8:
  2
INDEX8
 70
     0
  0
ATTDEF
  5
C8881
  8
0
 62
     4
 10
-190.34874260355031
 20
42.0
 30
0.0
 40
2.5
  1

 41
0.7
 51
15.0
  3
Aenderung8:
  2
A8
 70
     0
  0
ATTDEF
  5
C8882
  8
0
 62
     4
 10
-157.34874260355031
 20
42.0
 30
0.0
 40
2.5
  1

 41
0.7
 51
15.0
  3
Datum8:
  2
DATUM8
 70
     0
  0
ATTDEF
  5
C8883
  8
0
 62
     4
 10
-144.46499013806701
 20
42.0
 30
0.0
 40
2.5
  1

 41
0.7
 51
15.0
  3
Name8:
  2
NAME8
 70
     0
  0
POLYLINE
  5
C8884
  8
0
 62
     2
 66
     1
 10
0.0
 20
0.0
 30
0.0
  0
VERTEX
  5
C8BB6
  8
0
 62
     2
 10
0.0
 20
0.0
 30
0.0
  0
VERTEX
  5
C8BB7
  8
0
 62
     2
 10
0.0
 20
46.0
 30
0.0
  0
SEQEND
  5
C8BB8
  8
0
 62
     2
  0
POLYLINE
  5
C8885
  8
0
 62
     2
 66
     1
 10
0.0
 20
0.0
 30
0.0
  0
VERTEX
  5
C8BB9
  8
0
 62
     2
 10
-200.0
 20
46.0
 30
0.0
  0
VERTEX
  5
C8BBA
  8
0
 62
     2
 10
-200.0
 20
0.0
 30
0.0
  0
SEQEND
  5
C8BBB
  8
0
 62
     2
  0
POLYLINE
  5
C8886
  8
0
 62
     2
 66
     1
 10
0.0
 20
0.0
 30
0.0
  0
VERTEX
  5
C8BBC
  8
0
 62
     2
 10
0.0
 20
9.0
 30
0.0
  0
VERTEX
  5
C8BBD
  8
0
 62
     2
 10
-133.0
 20
9.0
 30
0.0
  0
SEQEND
  5
C8BBE
  8
0
 62
     2
  0
POLYLINE
  5
C8887
  8
0
 62
     2
 66
     1
 10
0.0
 20
0.0
 30
0.0
  0
VERTEX
  5
C8BBF
  8
0
 62
     2
 10
0.0
 20
18.0
 30
0.0
  0
VERTEX
  5
C8BC0
  8
0
 62
     2
 10
-51.0
 20
18.0
 30
0.0
  0
SEQEND
  5
C8BC1
  8
0
 62
     2
  0
POLYLINE
  5
C8888
  8
0
 62
     2
 66
     1
 10
0.0
 20
0.0
 30
0.0
  0
VERTEX
  5
C8BC2
  8
0
 62
     2
 10
0.0
 20
26.0
 30
0.0
  0
VERTEX
  5
C8BC3
  8
0
 62
     2
 10
-133.0
 20
26.0
 30
0.0
  0
SEQEND
  5
C8BC4
  8
0
 62
     2
  0
POLYLINE
  5
C8889
  8
0
 62
     2
 66
     1
 10
0.0
 20
0.0
 30
0.0
  0
VERTEX
  5
C8BC5
  8
0
 62
     2
 10
0.0
 20
31.0
 30
0.0
  0
VERTEX
  5
C8BC6
  8
0
 62
     2
 10
-51.0
 20
31.0
 30
0.0
  0
SEQEND
  5
C8BC7
  8
0
 62
     2
  0
POLYLINE
  5
C888A
  8
0
 62
     2
 66
     1
 10
0.0
 20
0.0
 30
0.0
  0
VERTEX
  5
C8BC8
  8
0
 62
     2
 10
0.0
 20
36.0
 30
0.0
  0
VERTEX
  5
C8BC9
  8
0
 62
     2
 10
-51.0
 20
36.0
 30
0.0
  0
SEQEND
  5
C8BCA
  8
0
 62
     2
  0
POLYLINE
  5
C888B
  8
0
 62
     2
 66
     1
 10
0.0
 20
0.0
 30
0.0
  0
VERTEX
  5
C8BCB
  8
0
 62
     2
 10
0.0
 20
41.0
 30
0.0
  0
VERTEX
  5
C8BCC
  8
0
 62
     2
 10
-51.0
 20
41.0
 30
0.0
  0
SEQEND
  5
C8BCD
  8
0
 62
     2
  0
POLYLINE
  5
C888C
  8
0
 62
     2
 66
     1
 10
0.0
 20
0.0
 30
0.0
  0
VERTEX
  5
C8BCE
  8
0
 62
     2
 10
0.0
 20
46.0
 30
0.0
  0
VERTEX
  5
C8BCF
  8
0
 62
     2
 10
-200.0
 20
46.0
 30
0.0
  0
SEQEND
  5
C8BD0
  8
0
 62
     2
  0
TEXT
  5
C888D
  8
035
 10
517.65315784783218
 20
512.84858999021753
 30
0.0
 40
3.5
  1
  
 41
0.7
 51
15.0
  0
LINE
  5
C888E
  8
05
 10
-109.78683304835209
 20
1.9918663370028851
 30
0.0
 11
-107.1218538217631
 21
1.9918663370028851
 31
0.0
  0
LINE
  5
C888F
  8
05
 10
-109.78683304835209
 20
1.9918663370028851
 30
0.0
 11
-108.88484451080581
 21
5.7212269608096227
 31
0.0
  0
LINE
  5
C8890
  8
05
 10
-97.883056873532695
 20
2.941046471765929
 30
0.0
 11
-97.741767658313606
 21
3.5252206756179341
 31
0.0
  0
LINE
  5
C8891
  8
05
 10
-100.62675264869139
 20
1.985934361472224
 30
0.0
 11
-99.739169578347628
 21
5.6557341594846191
 31
0.0
  0
LINE
  5
C8892
  8
05
 10
-101.6525702459091
 20
1.991866337002882
 30
0.0
 11
-103.7779290465684
 21
3.448339754567221
 31
0.0
  0
LINE
  5
C8893
  8
05
 10
-104.57533813105159
 20
1.9918663370028851
 30
0.0
 11
-106.7597940825441
 21
3.48883805970712
 31
0.0
  0
LINE
  5
C8894
  8
05
 10
-107.1218538217631
 20
1.9918663370028851
 30
0.0
 11
-106.7597940825441
 21
3.48883805970712
 31
0.0
  0
LINE
  5
C8895
  8
05
 10
-78.264921974117073
 20
1.9918663370018479
 30
0.0
 11
-80.343243437722805
 21
4.2570158836873508
 31
0.0
  0
LINE
  5
C8896
  8
05
 10
-75.015520852942274
 20
1.991866337002878
 30
0.0
 11
-74.129372498752886
 21
5.655734159485319
 31
0.0
  0
LINE
  5
C8897
  8
05
 10
-80.891095773025427
 20
1.9918663370025049
 30
0.0
 11
-80.343243437723174
 21
4.2570158836866483
 31
0.0
  0
LINE
  5
C8898
  8
05
 10
-83.271451166946505
 20
1.9918663370025049
 30
0.0
 11
-82.385302812758056
 21
5.6557341594842887
 31
0.0
  0
LINE
  5
C8899
  8
05
 10
-86.159077321275419
 20
5.6557341594846164
 30
0.0
 11
-84.240667666742979
 21
1.991866337002882
 31
0.0
  0
LINE
  5
C889A
  8
05
 10
-92.656302414444966
 20
1.9918663370025049
 30
0.0
 11
-89.20289518730408
 21
5.6557341594846164
 31
0.0
  0
LINE
  5
C889B
  8
05
 10
-99.739169578347628
 20
5.6557341594846191
 30
0.0
 11
-92.981553597599401
 21
5.655734159485319
 31
0.0
  0
LINE
  5
C889C
  8
05
 10
-97.554767568331016
 20
4.2983910022902228
 30
0.0
 11
-97.430100730957875
 21
4.8138383445134698
 31
0.0
  0
LINE
  5
C889D
  8
05
 10
-97.741767658313975
 20
3.5252206756176032
 30
0.0
 11
-94.448619706812366
 21
3.5252206756179341
 31
0.0
  0
LINE
  5
C889E
  8
05
 10
-97.554767568330632
 20
4.2983910022905496
 30
0.0
 11
-94.261619616829677
 21
4.2983910022902228
 31
0.0
  0
ARC
  5
C889F
  8
05
 10
-103.576800163518
 20
1.0484882972761149
 30
0.0
 40
4.6037310052774787
 50
69.562986325370431
 51
81.731692240168215
  0
ARC
  5
C88A0
  8
05
 10
-104.3603333216701
 20
9.6953157949000115
 30
0.0
 40
6.2740660171972342
 50
275.32627756006741
 51
289.52599257429313
  0
ARC
  5
C88A1
  8
05
 10
-102.5940664039618
 20
4.9720770628631987
 30
0.0
 40
1.2327170994611441
 50
286.58188649066301
 51
338.14695643463642
  0
ARC
  5
C88A2
  8
05
 10
-102.0219367310586
 20
4.683869386119464
 30
0.0
 40
0.5972269208190048
 50
340.39974372020578
 51
51.414227838870453
  0
ARC
  5
C88A3
  8
05
 10
-102.9254509671164
 20
3.5630113224345119
 30
0.0
 40
2.0377001943981661
 50
51.536856151961693
 51
62.015041241413471
  0
ARC
  5
C88A4
  8
05
 10
-105.569754799183
 20
-23.421023874283328
 30
0.0
 40
29.146566368908172
 50
84.676683437458124
 51
90.985976470691384
  0
ARC
  5
C88A5
  8
05
 10
-105.66275477025729
 20
8.0454129654963822
 30
0.0
 40
4.086755202961017
 50
273.84453704372032
 51
284.46462793712249
  0
ARC
  5
C88A6
  8
05
 10
-105.4613562964997
 20
1.639787309913312
 30
0.0
 40
3.3174382729703238
 50
71.645510386436442
 51
85.712787694453695
  0
ARC
  5
C88A7
  8
05
 10
-105.26614317300449
 20
5.6230814654518531
 30
0.0
 40
1.6569466452348129
 50
292.13000306555853
 51
304.02720735554431
  0
ARC
  5
C88A8
  8
05
 10
-104.53310252415289
 20
4.4967315408467341
 30
0.0
 40
0.3140859843502878
 50
308.18397114713127
 51
68.249047543413937
  0
LINE
  5
C88A9
  8
05
 10
-106.68286465598079
 20
3.9678543882207711
 30
0.0
 11
-106.4458190427289
 21
4.9479428697369414
 31
0.0
  0
LINE
  5
C88AA
  8
05
 10
-106.68286465598079
 20
3.9678543882210979
 30
0.0
 11
-105.3887399206229
 21
3.9678543882214292
 31
0.0
  0
LINE
  5
C88AB
  8
05
 10
-106.4458190427289
 20
4.9479428697369414
 30
0.0
 11
-105.21335733083011
 21
4.9479428697372683
 31
0.0
  0
LINE
  5
C88AC
  8
05
 10
-108.88484451080581
 20
5.7212269608096227
 30
0.0
 11
-106.0016110672158
 21
5.7212269608096227
 31
0.0
  0
LINE
  5
C88AD
  8
05
 10
-93.185175733272004
 20
4.8138383445131403
 30
0.0
 11
-92.981553597599401
 21
5.655734159485319
 31
0.0
  0
LINE
  5
C88AE
  8
05
 10
-97.430100730958173
 20
4.8138383445131403
 30
0.0
 11
-93.185175733271606
 21
4.8138383445134698
 31
0.0
  0
LINE
  5
C88AF
  8
05
 10
-94.448619706812366
 20
3.5252206756176032
 30
0.0
 11
-94.261619616829961
 21
4.2983910022905496
 31
0.0
  0
LINE
  5
C88B0
  8
05
 10
-77.190213188165629
 20
3.465138938138046
 30
0.0
 11
-76.660392669483571
 21
5.6557341594846164
 31
0.0
  0
LINE
  5
C88B1
  8
05
 10
-81.626596326446361
 20
5.6557341594842887
 30
0.0
 11
-81.629003084324466
 21
5.6583572698222611
 31
0.0
  0
LINE
  5
C88B2
  8
05
 10
-76.660392669483571
 20
5.6557341594846164
 30
0.0
 11
-74.129372498752886
 21
5.655734159485319
 31
0.0
  0
LINE
  5
C88B3
  8
05
 10
-77.190213188165629
 20
3.465138938138046
 30
0.0
 11
-79.200129519411831
 21
5.6557341594846164
 31
0.0
  0
LINE
  5
C88B4
  8
05
 10
-82.385302812758056
 20
5.6557341594842887
 30
0.0
 11
-79.200129519411831
 21
5.6557341594846164
 31
0.0
  0
LINE
  5
C88B5
  8
05
 10
-89.117244030689307
 20
3.2846780332485639
 30
0.0
 11
-87.581878719349504
 21
3.2846780332485599
 31
0.0
  0
LINE
  5
C88B6
  8
05
 10
-89.117244030689307
 20
3.2846780332485639
 30
0.0
 11
-88.130195927732785
 21
4.3318796940438018
 31
0.0
  0
LINE
  5
C88B7
  8
05
 10
-88.130195927733425
 20
4.3318796940431454
 30
0.0
 11
-87.581878719349135
 21
3.2846780332485599
 31
0.0
  0
LINE
  5
C88B8
  8
05
 10
-89.20289518730408
 20
5.6557341594846164
 30
0.0
 11
-86.159077321275419
 21
5.6557341594846164
 31
0.0
  0
LINE
  5
C88B9
  8
05
 10
-90.335793790522885
 20
1.9918663370025049
 30
0.0
 11
-89.910780799877074
 21
2.4427808449485511
 31
0.0
  0
LINE
  5
C88BA
  8
05
 10
-100.6253179325368
 20
1.9918663370025089
 30
0.0
 11
-93.867701951788149
 21
1.991866337003209
 31
0.0
  0
LINE
  5
C88BB
  8
05
 10
-97.883056873532041
 20
2.9410464717656022
 30
0.0
 11
-93.638131875846156
 21
2.941046471765929
 31
0.0
  0
LINE
  5
C88BC
  8
05
 10
-104.57533813105159
 20
1.9918663370028851
 30
0.0
 11
-101.58288153919079
 21
1.991866337002882
 31
0.0
  0
LINE
  5
C88BD
  8
05
 10
-92.656302414444966
 20
1.9918663370025049
 30
0.0
 11
-90.335793790522885
 21
1.9918663370025049
 31
0.0
  0
LINE
  5
C88BE
  8
05
 10
-93.869136667943124
 20
1.985934361472224
 30
0.0
 11
-93.638131875846454
 21
2.941046471765929
 31
0.0
  0
LINE
  5
C88BF
  8
05
 10
-78.264921974116689
 20
1.9918663370021781
 30
0.0
 11
-75.015520852942657
 21
1.9918663370025049
 31
0.0
  0
LINE
  5
C88C0
  8
05
 10
-83.271451166946505
 20
1.9918663370025049
 30
0.0
 11
-80.891095773025427
 21
1.9918663370025049
 31
0.0
  0
LINE
  5
C88C1
  8
05
 10
-89.910780799877074
 20
2.4427808449485511
 30
0.0
 11
-87.141059406969234
 21
2.4427808449482198
 31
0.0
  0
LINE
  5
C88C2
  8
05
 10
-87.141059406969234
 20
2.442780844948877
 30
0.0
 11
-86.904959529102058
 21
1.991866337002882
 31
0.0
  0
LINE
  5
C88C3
  8
05
 10
-86.904959529102058
 20
1.991866337002882
 30
0.0
 11
-84.240667666742979
 21
1.991866337002882
 31
0.0
  0
ENDBLK
  5
C88C5
  8
0
  0
BLOCK
  8
0
  2
A$C7D765B98
 70
     0
 10
0.0
 20
0.0
 30
0.0
  3
A$C7D765B98
  1

  0
LINE
  5
C88C7
  8
025
 10
1.130109179932006
 20
-0.0000002720705936
 30
0.0
 11
-0.0000001000094301
 21
0.2733295877919488
 31
0.0
  0
LINE
  5
C88C8
  8
025
 10
1.130109179932006
 20
-0.0000002720705936
 30
0.0
 11
1.130109179932006
 21
0.8075691905321492
 31
0.0
  0
LINE
  5
C88C9
  8
025
 10
1.130109179932119
 20
5.1910696169921939
 30
0.0
 11
0.0198462034223894
 21
6.2375566555197386
 31
0.0
  0
LINE
  5
C88CA
  8
025
 10
0.0198462034223894
 20
7.159925705831454
 30
0.0
 11
1.130109179932006
 21
7.7412619647806764
 31
0.0
  0
LINE
  5
C88CB
  8
025
 10
1.130109179932119
 20
8.0349639344159698
 30
0.0
 11
0.0198462034224889
 21
8.3034937387155026
 31
0.0
  0
LINE
  5
C88CC
  8
025
 10
1.130109179932119
 20
8.7562837507556992
 30
0.0
 11
0.4437002263914707
 21
8.922299609938193
 31
0.0
  0
LINE
  5
C88CD
  8
025
 10
1.130109179932006
 20
10.536760999265731
 30
0.0
 11
0.0198462034221763
 21
10.805290803565549
 31
0.0
  0
LINE
  5
C88CE
  8
025
 10
1.130109179932318
 20
9.5520939928491373
 30
0.0
 11
0.4437002263912575
 21
8.9222996099383067
 31
0.0
  0
LINE
  5
C88CF
  8
025
 10
1.130109179932006
 20
0.8075691905321492
 30
0.0
 11
0.6764813851731475
 21
0.9172842630227648
 31
0.0
  0
LINE
  5
C88D0
  8
025
 10
1.130109179932006
 20
1.579240611959875
 30
0.0
 11
0.6764813851731475
 21
0.9172842630227648
 31
0.0
  0
LINE
  5
C88D1
  8
025
 10
1.130109179932006
 20
2.464927849881831
 30
0.0
 11
0.6887535988519034
 21
1.8208797284699469
 31
0.0
  0
LINE
  5
C88D2
  8
025
 10
1.1319067482746299
 20
2.7757816672205422
 30
0.0
 11
0.0198462034223894
 21
3.0447462339913889
 31
0.0
  0
LINE
  5
C88D3
  8
025
 10
0.8424788360644157
 20
3.6072046293898552
 30
0.0
 11
0.6654563500486576
 21
3.6500195430926108
 31
0.0
  0
LINE
  5
C88D4
  8
025
 10
0.665456350048757
 20
4.6479431647596519
 30
0.0
 11
0.4311623116630159
 21
4.704609858693714
 31
0.0
  0
LINE
  5
C88D5
  8
025
 10
0.2749661473531404
 20
3.7444640665336522
 30
0.0
 11
0.2749661473530409
 21
5.0308049749235124
 31
0.0
  0
LINE
  5
C88D6
  8
025
 10
0.2749661473531404
 20
5.0308049749233978
 30
0.0
 11
0.0198462034221763
 21
5.0925086523999417
 31
0.0
  0
LINE
  5
C88D7
  8
025
 10
-0.0000001000094301
 20
0.2733295877919488
 30
0.0
 11
-0.0000001000094301
 21
1.14703669191013
 31
0.0
  0
LINE
  5
C88D8
  8
025
 10
0.2343284124368381
 20
1.0124282144818999
 30
0.0
 11
0.2343284124367386
 21
1.38590146051186
 31
0.0
  0
LINE
  5
C88D9
  8
025
 10
0.5313249219870926
 20
0.9405962104661682
 30
0.0
 11
0.5313249219869931
 21
1.3327552211806899
 31
0.0
  0
LINE
  5
C88DA
  8
025
 10
0.5313249219871921
 20
0.9405962104661682
 30
0.0
 11
0.2343284124368381
 21
1.0124282144818999
 31
0.0
  0
ARC
  5
C88DB
  8
025
 10
0.371059118161142
 20
1.592039280717074
 30
0.0
 40
0.0951775710152387
 50
38.183971147131302
 51
158.24904754341389
  0
ARC
  5
C88DC
  8
025
 10
0.0297409591898941
 20
1.3699057507620289
 30
0.0
 40
0.5021050440105496
 50
22.130003065558579
 51
34.027207355544313
  0
ARC
  5
C88DD
  8
025
 10
1.2367997942015729
 20
1.310750258793774
 30
0.0
 40
1.0052843251425221
 50
161.6455103864364
 51
175.71278769445371
  0
ARC
  5
C88DE
  8
025
 10
-0.704298889308447
 20
1.2497204182611761
 30
0.0
 40
1.2384106675639439
 50
3.844537043720297
 51
14.46462793712257
  0
ARC
  5
C88DF
  8
025
 10
8.8309850015338895
 20
1.277902227677628
 30
0.0
 40
8.832292839063081
 50
174.67668343745811
 51
180.98597647069141
  0
ARC
  5
C88E0
  8
025
 10
0.6540046388921184
 20
2.0792064192129649
 30
0.0
 40
0.6174849073933837
 50
141.5368561519617
 51
152.01504124141351
  0
ARC
  5
C88E1
  8
025
 10
0.3143506801997091
 20
2.3529986119577582
 30
0.0
 40
0.1809778547936378
 50
70.399743720205791
 51
141.4142278388704
  0
ARC
  5
C88E2
  8
025
 10
0.2270150205803958
 20
2.1796259838052658
 30
0.0
 40
0.3735506362003468
 50
16.581886490663031
 51
68.146956434636451
  0
ARC
  5
C88E3
  8
025
 10
-1.2042694436731829
 20
1.6443935844997379
 30
0.0
 40
1.901232126423404
 50
5.3262775600673686
 51
19.52599257429317
  0
ARC
  5
C88E4
  8
025
 10
1.4159813131825409
 20
1.8818278748488519
 30
0.0
 40
1.3950700015992361
 50
159.56298632537039
 51
171.7316922401682
  0
LINE
  5
C88E5
  8
025
 10
0.4311623116630159
 20
3.706686237026843
 30
0.0
 11
0.4311623116631154
 21
4.7046098586938001
 31
0.0
  0
LINE
  5
C88E6
  8
025
 10
0.665456350048757
 20
3.6500195430924971
 30
0.0
 11
0.6654563500486576
 21
4.6479431647596519
 31
0.0
  0
LINE
  5
C88E7
  8
025
 10
0.4311623116631154
 20
3.7066862370267302
 30
0.0
 11
0.2749661473530409
 21
3.744464066533737
 31
0.0
  0
LINE
  5
C88E8
  8
025
 10
0.0198462034223894
 20
3.0447462339913889
 30
0.0
 11
0.0198462034221763
 21
5.0925086523999417
 31
0.0
  0
LINE
  5
C88E9
  8
025
 10
0.0198462034223894
 20
6.2375566555197386
 30
0.0
 11
0.0198462034223894
 21
7.159925705831454
 31
0.0
  0
LINE
  5
C88EA
  8
025
 10
0.4210142232531382
 20
6.5626170372078141
 30
0.0
 11
0.7383480598575574
 21
6.7287737670212371
 31
0.0
  0
LINE
  5
C88EB
  8
025
 10
0.7383480598575574
 20
6.2635115514636084
 30
0.0
 11
0.4210142232529393
 21
6.562617037208013
 31
0.0
  0
LINE
  5
C88EC
  8
025
 10
0.7383480598575574
 20
6.2635115514636084
 30
0.0
 11
0.7383480598575574
 21
6.7287737670211243
 31
0.0
  0
LINE
  5
C88ED
  8
025
 10
0.0198462034224889
 20
8.3034937387155026
 30
0.0
 11
0.0198462034223894
 21
9.2686977670022372
 31
0.0
  0
LINE
  5
C88EE
  8
025
 10
0.6836629371637742
 20
9.8777633219253271
 30
0.0
 11
0.0198462034223894
 21
9.2686977670022372
 31
0.0
  0
LINE
  5
C88EF
  8
025
 10
0.0198462034223894
 20
10.038314994253231
 30
0.0
 11
0.0198462034221763
 21
10.805290803565549
 31
0.0
  0
LINE
  5
C88F0
  8
025
 10
0.0198462034224889
 20
8.5334047951735954
 30
0.0
 11
0.0190513215018911
 21
8.5326754746044742
 31
0.0
  0
LINE
  5
C88F1
  8
025
 10
0.6836629371637742
 20
9.8777633219253271
 30
0.0
 11
0.0198462034223894
 21
10.038314994253231
 31
0.0
  0
LINE
  5
C88F2
  8
025
 10
1.130109179932119
 20
5.89425404848373
 30
0.0
 11
0.9934684199484706
 21
6.0230458638309576
 31
0.0
  0
LINE
  5
C88F3
  8
025
 10
1.1319067482746299
 20
4.8235440856291234
 30
0.0
 11
0.8424788360644157
 21
4.8935455377796302
 31
0.0
  0
LINE
  5
C88F4
  8
025
 10
1.130109179932119
 20
5.1910696169921939
 30
0.0
 11
1.130109179932119
 21
5.89425404848373
 31
0.0
  0
LINE
  5
C88F5
  8
025
 10
1.130109179932006
 20
1.579240611959875
 30
0.0
 11
1.130109179932006
 21
2.4860456397964859
 31
0.0
  0
LINE
  5
C88F6
  8
025
 10
0.8424788360645152
 20
3.6072046293900542
 30
0.0
 11
0.8424788360644157
 21
4.8935455377797146
 31
0.0
  0
LINE
  5
C88F7
  8
025
 10
1.130109179932119
 20
2.7762164296916292
 30
0.0
 11
1.1301091799319061
 21
4.8239788481003236
 31
0.0
  0
LINE
  5
C88F8
  8
025
 10
1.130109179932006
 20
6.9339007943688378
 30
0.0
 11
1.130109179932006
 21
7.7412619647806764
 31
0.0
  0
LINE
  5
C88F9
  8
025
 10
0.9934684199483712
 20
6.8623553768333352
 30
0.0
 11
1.130109179932006
 21
6.9339007943688378
 31
0.0
  0
LINE
  5
C88FA
  8
025
 10
0.9934684199484706
 20
6.0230458638309576
 30
0.0
 11
0.9934684199485701
 21
6.8623553768333352
 31
0.0
  0
LINE
  5
C88FB
  8
025
 10
1.130109179932119
 20
8.0349639344159698
 30
0.0
 11
1.130109179932119
 21
8.7562837507556992
 31
0.0
  0
LINE
  5
C88FC
  8
025
 10
1.1301091799322189
 20
9.5520939928492492
 30
0.0
 11
1.130109179932119
 21
10.536760999265621
 31
0.0
  0
ENDBLK
  5
C88FE
  8
0
  0
BLOCK
  8
0
  2
A$C6A877A20
 70
     0
 10
0.0
 20
0.0
 30
0.0
  3
A$C6A877A20
  1

  0
INSERT
  5
C8900
  8
BEM1
 66
     1
  2
ZKOPF-REAN
 10
199.99999963002639
 20
0.000000311761255
 30
0.0
  0
ATTRIB
  5
C8901
  8
0
 62
     4
 10
184.83333296335971
 20
37.000000311761262
 30
0.0
 40
2.5
  1
Battlogg
  7
SCRIPTS
 72
     1
 11
191.49999963002639
 21
37.000000311761262
 31
0.0
  2
NAME
 70
     0
  0
ATTRIB
  5
C8902
  8
0
 62
     4
 10
170.83333296335971
 20
37.000000311761262
 30
0.0
 40
2.5
  1
29.01.01
 41
0.7
 51
15.0
 72
     1
 11
175.49999963002639
 21
37.000000311761262
 31
0.0
  2
DATE
 70
     0
  0
ATTRIB
  5
C8903
  8
0
 62
     4
 10
119.49999963002639
 20
36.000000311761262
 30
0.0
 40
2.5
  1

 41
0.7
 51
15.0
 72
     1
 11
119.49999963002639
 21
36.000000311761262
 31
0.0
  2
WERKSTOFF
 70
     0
  0
ATTRIB
  5
C8904
  8
0
 62
     2
 10
96.333332963359766
 20
12.50000031176125
 30
0.0
 40
5.0
  1
NYS 224
 41
0.7
 51
15.0
 72
     1
 11
107.99999963002639
 21
12.50000031176125
 31
0.0
  2
BENENNUNG
 70
     0
  0
ATTRIB
  5
C8905
  8
0
 62
     3
 10
93.197043028147803
 20
21.08219176228819
 30
0.0
 40
3.5
  1
1/4" Phone Plugs
 41
0.7
 51
15.0
 72
     1
 11
110.95954302814781
 21
21.08219176228819
 31
0.0
  2
TEIL
 70
     0
  0
ATTRIB
  5
C8906
  8
0
 62
     3
 10
164.95394721411671
 20
1.9765413282990489
 30
0.0
 40
3.5
  1
3102 ST 22 18
 41
0.7
 51
15.0
 72
     1
 11
179.44978054744999
 21
1.9765413282990489
 31
0.0
  2
NUMMER
 70
     0
  0
ATTRIB
  5
C8907
  8
0
 62
     2
 10
137.10066132588361
 20
34.656056544695787
 30
0.0
 40
5.0
  1
1:1
 41
0.7
 51
15.0
 72
     1
 11
139.43399465921689
 21
34.656056544695787
 31
0.0
  2
MASS
 70
     0
  0
ATTRIB
  5
C8908
  8
0
 62
     3
 10
139.51929868404639
 20
28.21045085093656
 30
0.0
 40
3.5
  1

 41
0.7
 51
15.0
 72
     1
 11
139.51929868404639
 21
28.21045085093656
 31
0.0
  2
MASS2
 70
     0
  0
ATTRIB
  5
C8909
  8
0
 62
     4
 10
118.99999963002639
 20
29.000000311761259
 30
0.0
 40
2.5
  1

 41
0.7
 51
15.0
 72
     1
 11
118.99999963002639
 21
29.000000311761259
 31
0.0
  2
TEIL
 70
     0
  0
ATTRIB
  5
C890A
  8
0
 62
     3
 10
92.288547689464565
 20
59.004319059190692
 30
0.0
 40
3.5
  1

 41
0.7
 51
15.0
  2
TOL
 70
     0
  0
ATTRIB
  5
C890B
  8
0
 62
     3
 10
92.288547689464565
 20
54.004319059190692
 30
0.0
 40
3.5
  1

 41
0.7
 51
15.0
  2
RADIEN
 70
     0
  0
ATTRIB
  5
C890C
  8
0
 62
     3
 10
92.288547689464565
 20
49.004319059190692
 30
0.0
 40
3.5
  1

 41
0.7
 51
15.0
  2
FACETTE
 70
     0
  0
ATTRIB
  5
C890D
  8
0
 62
     4
 10
2.8137323716437659
 20
7.000000311761255
 30
0.0
 40
2.5
  1

 41
0.7
 51
15.0
  2
INDEX1
 70
     0
  0
ATTRIB
  5
C890E
  8
0
 62
     4
 10
9.6512570264761166
 20
7.000000311761255
 30
0.0
 40
2.5
  1

 41
0.7
 51
15.0
  2
A1
 70
     0
  0
ATTRIB
  5
C890F
  8
0
 62
     4
 10
42.65125702647611
 20
7.000000311761255
 30
0.0
 40
2.5
  1

 41
0.7
 51
15.0
  2
DATUM1
 70
     0
  0
ATTRIB
  5
C8910
  8
0
 62
     4
 10
55.535009491959393
 20
7.000000311761255
 30
0.0
 40
2.5
  1

 41
0.7
 51
15.0
  2
NAME1
 70
     0
  0
ATTRIB
  5
C8911
  8
0
 62
     4
 10
2.8137323716437659
 20
12.00000031176125
 30
0.0
 40
2.5
  1

 41
0.7
 51
15.0
  2
INDEX2
 70
     0
  0
ATTRIB
  5
C8912
  8
0
 62
     4
 10
9.6512570264761166
 20
12.00000031176125
 30
0.0
 40
2.5
  1

 41
0.7
 51
15.0
  2
A2
 70
     0
  0
ATTRIB
  5
C8913
  8
0
 62
     4
 10
42.65125702647611
 20
12.00000031176125
 30
0.0
 40
2.5
  1

 41
0.7
 51
15.0
  2
DATUM2
 70
     0
  0
ATTRIB
  5
C8914
  8
0
 62
     4
 10
55.535009491959393
 20
12.00000031176125
 30
0.0
 40
2.5
  1

 41
0.7
 51
15.0
  2
NAME2
 70
     0
  0
ATTRIB
  5
C8915
  8
0
 62
     4
 10
2.8137323716437659
 20
17.000000311761251
 30
0.0
 40
2.5
  1

 41
0.7
 51
15.0
  2
INDEX3
 70
     0
  0
ATTRIB
  5
C8916
  8
0
 62
     4
 10
9.6512570264761166
 20
17.000000311761251
 30
0.0
 40
2.5
  1

 41
0.7
 51
15.0
  2
A3
 70
     0
  0
ATTRIB
  5
C8917
  8
0
 62
     4
 10
42.65125702647611
 20
17.000000311761251
 30
0.0
 40
2.5
  1

 41
0.7
 51
15.0
  2
DATUM3
 70
     0
  0
ATTRIB
  5
C8918
  8
0
 62
     4
 10
55.535009491959393
 20
17.000000311761251
 30
0.0
 40
2.5
  1

 41
0.7
 51
15.0
  2
NAME3
 70
     0
  0
ATTRIB
  5
C8919
  8
0
 62
     4
 10
2.8137323716437659
 20
22.000000311761251
 30
0.0
 40
2.5
  1

 41
0.7
 51
15.0
  2
INDEX4
 70
     0
  0
ATTRIB
  5
C891A
  8
0
 62
     4
 10
9.6512570264761166
 20
22.000000311761251
 30
0.0
 40
2.5
  1

 41
0.7
 51
15.0
  2
A4
 70
     0
  0
ATTRIB
  5
C891B
  8
0
 62
     4
 10
42.65125702647611
 20
22.000000311761251
 30
0.0
 40
2.5
  1

 41
0.7
 51
15.0
  2
DATUM4
 70
     0
  0
ATTRIB
  5
C891C
  8
0
 62
     4
 10
55.535009491959393
 20
22.000000311761251
 30
0.0
 40
2.5
  1

 41
0.7
 51
15.0
  2
NAME4
 70
     0
  0
ATTRIB
  5
C891D
  8
0
 62
     4
 10
2.8137323716437659
 20
27.000000311761259
 30
0.0
 40
2.5
  1

 41
0.7
 51
15.0
  2
INDEX5
 70
     0
  0
ATTRIB
  5
C891E
  8
0
 62
     4
 10
9.6512570264761166
 20
27.000000311761259
 30
0.0
 40
2.5
  1

 41
0.7
 51
15.0
  2
A5
 70
     0
  0
ATTRIB
  5
C891F
  8
0
 62
     4
 10
42.65125702647611
 20
27.000000311761259
 30
0.0
 40
2.5
  1

 41
0.7
 51
15.0
  2
DATUM5
 70
     0
  0
ATTRIB
  5
C8920
  8
0
 62
     4
 10
55.535009491959393
 20
27.000000311761259
 30
0.0
 40
2.5
  1

 41
0.7
 51
15.0
  2
NAME5
 70
     0
  0
ATTRIB
  5
C8921
  8
0
 62
     4
 10
2.8137323716437659
 20
32.000000311761262
 30
0.0
 40
2.5
  1

 41
0.7
 51
15.0
  2
INDEX6
 70
     0
  0
ATTRIB
  5
C8922
  8
0
 62
     4
 10
9.6512570264761166
 20
32.000000311761262
 30
0.0
 40
2.5
  1

 41
0.7
 51
15.0
  2
A6
 70
     0
  0
ATTRIB
  5
C8923
  8
0
 62
     4
 10
42.65125702647611
 20
32.000000311761262
 30
0.0
 40
2.5
  1

 41
0.7
 51
15.0
  2
DATUM6
 70
     0
  0
ATTRIB
  5
C8924
  8
0
 62
     4
 10
55.535009491959393
 20
32.000000311761262
 30
0.0
 40
2.5
  1

 41
0.7
 51
15.0
  2
NAME6
 70
     0
  0
ATTRIB
  5
C8925
  8
0
 62
     4
 10
2.8137323716437659
 20
37.000000311761262
 30
0.0
 40
2.5
  1

 41
0.7
 51
15.0
  2
INDEX7
 70
     0
  0
ATTRIB
  5
C8926
  8
0
 62
     4
 10
9.6512570264761166
 20
37.000000311761262
 30
0.0
 40
2.5
  1

 41
0.7
 51
15.0
  2
A7
 70
     0
  0
ATTRIB
  5
C8927
  8
0
 62
     4
 10
42.65125702647611
 20
37.000000311761262
 30
0.0
 40
2.5
  1

 41
0.7
 51
15.0
  2
DATUM7
 70
     0
  0
ATTRIB
  5
C8928
  8
0
 62
     4
 10
55.535009491959393
 20
37.000000311761262
 30
0.0
 40
2.5
  1

 41
0.7
 51
15.0
  2
NAME7
 70
     0
  0
ATTRIB
  5
C8929
  8
0
 62
     4
 10
2.8137323716437659
 20
42.000000311761248
 30
0.0
 40
2.5
  1

 41
0.7
 51
15.0
  2
INDEX8
 70
     0
  0
ATTRIB
  5
C892A
  8
0
 62
     4
 10
9.6512570264761166
 20
42.000000311761248
 30
0.0
 40
2.5
  1

 41
0.7
 51
15.0
  2
A8
 70
     0
  0
ATTRIB
  5
C892B
  8
0
 62
     4
 10
42.65125702647611
 20
42.000000311761248
 30
0.0
 40
2.5
  1

 41
0.7
 51
15.0
  2
DATUM8
 70
     0
  0
ATTRIB
  5
C892C
  8
0
 62
     4
 10
55.535009491959393
 20
42.000000311761248
 30
0.0
 40
2.5
  1

 41
0.7
 51
15.0
  2
NAME8
 70
     0
  0
SEQEND
  5
C892D
  8
BEM1
  0
INSERT
  5
C892E
  8
BEM1
  2
A$C7D765B98
 10
98.633744917924545
 20
189.8266719895413
 30
0.0
  0
ENDBLK
  5
C8930
  8
0
  0
BLOCK
  8
0
  2
A$C3FEF3D0B
 70
     0
 10
0.0
 20
0.0
 30
0.0
  3
A$C3FEF3D0B
  1

  0
POLYLINE
  5
C89E1
  8
010
 66
     1
 10
0.0
 20
0.0
 30
0.0
 70
     1
  0
VERTEX
  5
C8BD5
  8
010
 10
3.698486263659333
 20
1.110333596416921
 30
0.0
  0
VERTEX
  5
C8BD6
  8
010
 10
5.6892205410567831
 20
1.110333596416921
 30
0.0
  0
VERTEX
  5
C8BD7
  8
010
 10
5.7567051040739443
 20
1.4119053307707641
 30
0.0
  0
VERTEX
  5
C8BD8
  8
010
 10
3.7659708266760381
 20
1.4119053307707641
 30
0.0
  0
VERTEX
  5
C8BD9
  8
010
 10
3.9053690698622172
 20
2.034841422884937
 30
0.0
  0
VERTEX
  5
C8BDA
  8
010
 10
5.8952718680168337
 20
2.034841422884937
 30
0.0
  0
VERTEX
  5
C8BDB
  8
010
 10
6.0087688114408593
 20
2.542031045848034
 30
0.0
  0
VERTEX
  5
C8BDC
  8
010
 10
3.331337037765024
 20
2.542031045848034
 30
0.0
  0
VERTEX
  5
C8BDD
  8
010
 10
2.7624912186806792
 20
0.0000005047468221
 30
0.0
  0
VERTEX
  5
C8BDE
  8
010
 10
5.4399229923569692
 20
0.0000005047468221
 30
0.0
  0
VERTEX
  5
C8BDF
  8
010
 10
5.5687573959162364
 20
0.5757294239124349
 30
0.0
  0
VERTEX
  5
C8BE0
  8
010
 10
3.5788545977616191
 20
0.5757294239124349
 30
0.0
  0
SEQEND
  5
C8BE1
  8
010
  0
POLYLINE
  5
C89E2
  8
010
 66
     1
 10
0.0
 20
0.0
 30
0.0
  0
VERTEX
  5
C8BE2
  8
010
 10
1.837981919566573
 20
1.2710157752969731
 30
0.0
  0
VERTEX
  5
C8BE3
  8
010
 10
1.154939846039269
 20
2.542031045848034
 30
0.0
  0
VERTEX
  5
C8BE4
  8
010
 10
0.5688451928604082
 20
2.5473407551492069
 30
0.0
  0
VERTEX
  5
C8BE5
  8
010
 10
-0.0000006262239367
 20
0.005310214047995
 30
0.0
  0
VERTEX
  5
C8BE6
  8
010
 10
0.4755607559468445
 20
0.005310214047995
 30
0.0
  0
VERTEX
  5
C8BE7
  8
010
 10
0.8281474495074689
 20
1.5809324887441101
 30
0.0
  0
VERTEX
  5
C8BE8
  8
010
 10
1.677738391076218
 20
0.0000005047468221
 30
0.0
  0
VERTEX
  5
C8BE9
  8
010
 10
2.0809505637384969
 20
0.0000005047468221
 30
0.0
  0
VERTEX
  5
C8BEA
  8
010
 10
2.6497963828223869
 20
2.542031045848034
 30
0.0
  0
VERTEX
  5
C8BEB
  8
010
 10
2.11482367725307
 20
2.542031045848034
 30
0.0
  0
VERTEX
  5
C8BEC
  8
010
 10
1.830400767710898
 20
1.2710157752969731
 30
0.0
  0
SEQEND
  5
C8BED
  8
010
  0
POLYLINE
  5
C89E3
  8
010
 66
     1
 10
0.0
 20
0.0
 30
0.0
 70
     1
  0
VERTEX
  5
C8BEE
  8
010
 10
7.5860289241309138
 20
1.1951588617876041
 30
0.0
  0
VERTEX
  5
C8BEF
  8
010
 10
7.8874268020695117
 20
2.542031045848034
 30
0.0
  0
VERTEX
  5
C8BF0
  8
010
 10
6.9423599981942061
 20
2.542031045848034
 30
0.0
  0
VERTEX
  5
C8BF1
  8
010
 10
6.5121277166958862
 20
0.6194299426208545
 30
0.0
 42
0.4802663138757075
  0
VERTEX
  5
C8BF2
  8
010
 10
7.0082633747044829
 20
0.0000005047468221
 30
0.0
  0
VERTEX
  5
C8BF3
  8
010
 10
9.0074929757056452
 20
0.0000005047468221
 30
0.0
 42
0.3511082304936738
  0
VERTEX
  5
C8BF4
  8
010
 10
9.5036286337142428
 20
0.397383283311683
 30
0.0
  0
VERTEX
  5
C8BF5
  8
010
 10
9.9835496627504199
 20
2.542031045848034
 30
0.0
  0
VERTEX
  5
C8BF6
  8
010
 10
9.2608489897015716
 20
2.542031045848034
 30
0.0
  0
VERTEX
  5
C8BF7
  8
010
 10
8.9097623642251165
 20
0.9731122024775231
 30
0.0
 42
-0.3511082304936738
  0
VERTEX
  5
C8BF8
  8
010
 10
8.4136267062162915
 20
0.5757294239124349
 30
0.0
  0
VERTEX
  5
C8BF9
  8
010
 10
8.0821645821401944
 20
0.5757294239124349
 30
0.0
 42
-0.4802663138757075
  0
SEQEND
  5
C8BFA
  8
010
  0
POLYLINE
  5
C89E4
  8
010
 66
     1
 10
0.0
 20
0.0
 30
0.0
 70
     1
  0
VERTEX
  5
C8BFB
  8
010
 10
10.5296638005102
 20
2.034841422884937
 30
0.0
  0
VERTEX
  5
C8BFC
  8
010
 10
10.643160743934001
 20
2.542031045848034
 30
0.0
  0
VERTEX
  5
C8BFD
  8
010
 10
12.46000697940735
 20
2.542031045848034
 30
0.0
  0
VERTEX
  5
C8BFE
  8
010
 10
12.34651003598356
 20
2.034841422884937
 30
0.0
  0
VERTEX
  5
C8BFF
  8
010
 10
11.73536930828368
 20
2.034841422884937
 30
0.0
  0
VERTEX
  5
C8C00
  8
010
 10
11.28002043262336
 20
0.0000005047468221
 30
0.0
  0
VERTEX
  5
C8C01
  8
010
 10
10.86598380650798
 20
0.0000005047468221
 30
0.0
  0
VERTEX
  5
C8C02
  8
010
 10
11.3213326821683
 20
2.034841422884937
 30
0.0
  0
SEQEND
  5
C8C03
  8
010
  0
ENDBLK
  5
C89E5
  8
0
  0
BLOCK
  8
0
  2
*X10
 70
     1
 10
0.0
 20
0.0
 30
0.0
  3
*X10
  1

  0
LINE
  5
C89E8
  8
0
 62
     0
 10
218.04933407442809
 20
330.47931228308909
 30
0.0
 11
222.85332656153901
 21
335.2833047702
 31
0.0
  0
LINE
  5
C89E9
  8
0
 62
     0
 10
222.85332656153909
 20
335.28330477020012
 30
0.0
 11
224.7993340744282
 21
337.2293122830892
 31
0.0
  0
LINE
  5
C89EA
  8
0
 62
     0
 10
218.04933407442809
 20
332.6006326266488
 30
0.0
 11
220.7320062179794
 21
335.2833047702
 31
0.0
  0
LINE
  5
C89EB
  8
0
 62
     0
 10
220.7320062179794
 20
335.28330477020012
 30
0.0
 11
224.7993340744282
 21
339.35063262664892
 31
0.0
  0
LINE
  5
C89EC
  8
0
 62
     0
 10
218.04933407442809
 20
334.72195297020852
 30
0.0
 11
218.61068587441969
 21
335.2833047702
 31
0.0
  0
LINE
  5
C89ED
  8
0
 62
     0
 10
218.6106858744198
 20
335.28330477020012
 30
0.0
 11
224.7993340744282
 21
341.47195297020858
 31
0.0
  0
LINE
  5
C89EE
  8
0
 62
     0
 10
218.0493340744282
 20
336.84327331376818
 30
0.0
 11
224.79933407442829
 21
343.59327331376818
 31
0.0
  0
LINE
  5
C89EF
  8
0
 62
     0
 10
218.0493340744282
 20
338.96459365732778
 30
0.0
 11
223.8180451873005
 21
344.73330477020022
 31
0.0
  0
LINE
  5
C89F0
  8
0
 62
     0
 10
218.04933407442829
 20
341.0859140008875
 30
0.0
 11
221.6967248437409
 21
344.73330477020022
 31
0.0
  0
LINE
  5
C89F1
  8
0
 62
     0
 10
218.04933407442829
 20
343.20723434444722
 30
0.0
 11
219.57540450018121
 21
344.73330477020022
 31
0.0
  0
LINE
  5
C89F2
  8
0
 62
     0
 10
218.04933407442809
 20
328.35799193952943
 30
0.0
 11
224.79933407442809
 21
335.10799193952948
 31
0.0
  0
LINE
  5
C89F3
  8
0
 62
     0
 10
218.049334074428
 20
326.23667159596982
 30
0.0
 11
224.79933407442809
 21
332.98667159596988
 31
0.0
  0
LINE
  5
C89F4
  8
0
 62
     0
 10
219.767287592218
 20
325.83330477020007
 30
0.0
 11
224.799334074428
 21
330.86535125241022
 31
0.0
  0
LINE
  5
C89F5
  8
0
 62
     0
 10
221.8886079357776
 20
325.83330477020007
 30
0.0
 11
224.799334074428
 21
328.7440309088505
 31
0.0
  0
LINE
  5
C89F6
  8
0
 62
     0
 10
224.00992827933729
 20
325.83330477020007
 30
0.0
 11
224.799334074428
 21
326.62271056529079
 31
0.0
  0
LINE
  5
C89F7
  8
0
 62
     0
 10
224.799334074428
 20
330.98659593819832
 30
0.0
 11
220.50262524242629
 21
335.2833047702
 31
0.0
  0
LINE
  5
C89F8
  8
0
 62
     0
 10
220.50262524242621
 20
335.28330477020012
 30
0.0
 11
218.0493340744282
 21
337.73659593819809
 31
0.0
  0
LINE
  5
C89F9
  8
0
 62
     0
 10
224.799334074428
 20
328.86527559463872
 30
0.0
 11
218.38130489886669
 21
335.2833047702
 31
0.0
  0
LINE
  5
C89FA
  8
0
 62
     0
 10
218.3813048988666
 20
335.28330477020012
 30
0.0
 11
218.0493340744282
 21
335.61527559463849
 31
0.0
  0
LINE
  5
C89FB
  8
0
 62
     0
 10
224.799334074428
 20
326.743955251079
 30
0.0
 11
218.04933407442809
 21
333.49395525107889
 31
0.0
  0
LINE
  5
C89FC
  8
0
 62
     0
 10
223.5886642117473
 20
325.83330477020007
 30
0.0
 11
218.04933407442809
 21
331.37263490751928
 31
0.0
  0
LINE
  5
C89FD
  8
0
 62
     0
 10
221.46734386818761
 20
325.83330477020007
 30
0.0
 11
218.04933407442809
 21
329.25131456395968
 31
0.0
  0
LINE
  5
C89FE
  8
0
 62
     0
 10
219.34602352462801
 20
325.83330477020007
 30
0.0
 11
218.049334074428
 21
327.12999422040008
 31
0.0
  0
LINE
  5
C89FF
  8
0
 62
     0
 10
224.79933407442809
 20
333.10791628175792
 30
0.0
 11
222.62394558598589
 21
335.28330477020012
 31
0.0
  0
LINE
  5
C8A00
  8
0
 62
     0
 10
222.62394558598589
 20
335.28330477020012
 30
0.0
 11
218.0493340744282
 21
339.8579162817577
 31
0.0
  0
LINE
  5
C8A01
  8
0
 62
     0
 10
224.79933407442809
 20
335.22923662531753
 30
0.0
 11
224.7452659295455
 21
335.28330477020012
 31
0.0
  0
LINE
  5
C8A02
  8
0
 62
     0
 10
224.74526592954561
 20
335.28330477020012
 30
0.0
 11
218.04933407442829
 21
341.9792366253173
 31
0.0
  0
LINE
  5
C8A03
  8
0
 62
     0
 10
224.7993340744282
 20
337.35055696887707
 30
0.0
 11
218.04933407442829
 21
344.1005569688769
 31
0.0
  0
LINE
  5
C8A04
  8
0
 62
     0
 10
224.7993340744282
 20
339.47187731243667
 30
0.0
 11
219.5379066166648
 21
344.73330477020022
 31
0.0
  0
LINE
  5
C8A05
  8
0
 62
     0
 10
224.79933407442829
 20
341.59319765599628
 30
0.0
 11
221.6592269602244
 21
344.73330477020022
 31
0.0
  0
LINE
  5
C8A06
  8
0
 62
     0
 10
224.79933407442829
 20
343.71451799955588
 30
0.0
 11
223.780547303784
 21
344.73330477020022
 31
0.0
  0
ENDBLK
  5
C8A07
  8
0
  0
BLOCK
  8
0
  2
*U11
 70
     1
 10
0.0
 20
0.0
 30
0.0
  3
*U11
  1

  0
TEXT
  5
C8B1A
  8
BEM1
 62
     4
 10
9.6969004226524174
 20
21.933327829592741
 30
0.0
 40
3.0
  1
[0.248"]
 50
89.999999999999986
 41
0.7
 51
15.0
  0
ENDBLK
  5
C8B1C
  8
0
  0
BLOCK
  8
0
  2
*U12
 70
     1
 10
0.0
 20
0.0
 30
0.0
  3
*U12
  1

  0
TEXT
  5
C8B1E
  8
BEM1
 62
     3
 10
3.5000001366269911
 20
23.08007092171691
 30
0.0
 40
3.5
  1
\U+22056.29
 50
89.999999999999986
 41
0.7
 51
15.0
  0
ENDBLK
  5
C8B20
  8
0
  0
BLOCK
  8
0
  2
*U13
 70
     1
 10
0.0
 20
0.0
 30
0.0
  3
*U13
  1

  0
SOLID
  5
C8B22
  8
025
  6
AUSGEZOGEN
 10
24.656125614133551
 20
31.680403412488179
 30
0.0
 11
24.656125614133551
 21
31.680403412488179
 31
0.0
 12
26.181343938793589
 22
31.680403412488179
 32
0.0
 13
26.181343938793589
 23
31.680403412488179
 33
0.0
210
0.0
220
0.0
230
1.0
  0
SOLID
  5
C8B23
  8
025
  6
AUSGEZOGEN
 10
24.656125614133551
 20
31.680403412488179
 30
0.0
 11
24.656125614133551
 21
28.497781175029111
 31
0.0
 12
26.181343938793589
 22
28.497781175029111
 32
0.0
 13
26.181343938793589
 23
28.497781175029111
 33
0.0
210
0.0
220
0.0
230
1.0
  0
SOLID
  5
C8B24
  8
025
  6
AUSGEZOGEN
 10
-24.656125614133551
 20
31.680403412488179
 30
0.0
 11
-26.181343938793589
 21
31.680403412488179
 31
0.0
 12
-26.181343938793589
 22
28.497781175029111
 32
0.0
 13
-26.181343938793589
 23
28.497781175029111
 33
0.0
210
0.0
220
0.0
230
-1.0
  0
SOLID
  5
C8B25
  8
025
  6
AUSGEZOGEN
 10
24.656125614133551
 20
28.497781175029111
 30
0.0
 11
24.656125614133551
 21
28.497781175029111
 31
0.0
 12
26.181343938793589
 22
28.497781175029111
 32
0.0
 13
26.181343938793589
 23
28.497781175029111
 33
0.0
210
0.0
220
0.0
230
1.0
  0
SOLID
  5
C8B26
  8
025
  6
AUSGEZOGEN
 10
24.656125614133551
 20
28.497781175029111
 30
0.0
 11
24.656125614133551
 21
28.497781175029111
 31
0.0
 12
26.181343938793589
 22
28.497781175029111
 32
0.0
 13
26.181343938793589
 23
28.497781175029111
 33
0.0
210
0.0
220
0.0
230
1.0
  0
SOLID
  5
C8B27
  8
025
  6
AUSGEZOGEN
 10
24.656125614133551
 20
28.497781175029111
 30
0.0
 11
24.656125614133551
 21
25.31515893756978
 31
0.0
 12
26.181343938793589
 22
25.31515893756978
 32
0.0
 13
26.181343938793589
 23
25.31515893756978
 33
0.0
210
0.0
220
0.0
230
1.0
  0
SOLID
  5
C8B28
  8
025
  6
AUSGEZOGEN
 10
-24.656125614133551
 20
28.497781175029111
 30
0.0
 11
-26.181343938793589
 21
28.497781175029111
 31
0.0
 12
-26.181343938793589
 22
25.31515893756978
 32
0.0
 13
-26.181343938793589
 23
25.31515893756978
 33
0.0
210
0.0
220
0.0
230
-1.0
  0
SOLID
  5
C8B29
  8
025
  6
AUSGEZOGEN
 10
24.656125614133551
 20
25.31515893756978
 30
0.0
 11
24.656125614133551
 21
25.31515893756978
 31
0.0
 12
26.181343938793589
 22
25.31515893756978
 32
0.0
 13
26.181343938793589
 23
25.31515893756978
 33
0.0
210
0.0
220
0.0
230
1.0
  0
LINE
  5
C8B2A
  8
025
  6
AUSGEZOGEN
 10
24.656125614133551
 20
31.680403412488179
 30
0.0
 11
26.181343938793589
 21
31.680403412488179
 31
0.0
  0
LINE
  5
C8B2B
  8
025
  6
AUSGEZOGEN
 10
24.656125614133551
 20
31.680403412488179
 30
0.0
 11
24.656125614133551
 21
28.497781175029111
 31
0.0
  0
LINE
  5
C8B2C
  8
025
  6
AUSGEZOGEN
 10
26.181343938793589
 20
31.680403412488179
 30
0.0
 11
26.181343938793589
 21
28.497781175029111
 31
0.0
  0
LINE
  5
C8B2D
  8
025
  6
AUSGEZOGEN
 10
24.656125614133551
 20
28.497781175029111
 30
0.0
 11
26.181343938793589
 21
28.497781175029111
 31
0.0
  0
LINE
  5
C8B2E
  8
025
  6
AUSGEZOGEN
 10
24.656125614133551
 20
28.497781175029111
 30
0.0
 11
26.181343938793589
 21
28.497781175029111
 31
0.0
  0
LINE
  5
C8B2F
  8
025
  6
AUSGEZOGEN
 10
24.656125614133551
 20
28.497781175029111
 30
0.0
 11
24.656125614133551
 21
25.31515893756978
 31
0.0
  0
LINE
  5
C8B30
  8
025
  6
AUSGEZOGEN
 10
26.181343938793589
 20
28.497781175029111
 30
0.0
 11
26.181343938793589
 21
25.31515893756978
 31
0.0
  0
LINE
  5
C8B31
  8
025
  6
AUSGEZOGEN
 10
24.656125614133551
 20
25.31515893756978
 30
0.0
 11
26.181343938793589
 21
25.31515893756978
 31
0.0
  0
ENDBLK
  5
C8B33
  8
0
  0
BLOCK
  8
0
  2
*U14
 70
     1
 10
0.0
 20
0.0
 30
0.0
  3
*U14
  1

  0
TEXT
  5
C8B4B
  8
BEM1
 62
     4
 10
53.050559491910448
 20
2.0203894286657942
 30
0.0
 40
3.0
  1
[2.913"]
 41
0.7
 51
15.0
  0
ENDBLK
  5
C8B4D
  8
0
  0
BLOCK
  8
0
  2
*U15
 70
     1
 10
0.0
 20
0.0
 30
0.0
  3
*U15
  1

  0
TEXT
  5
C8B59
  8
BEM1
 62
     4
 10
68.041230221970622
 20
8.9806746993693878
 30
0.0
 40
3.0
  1
[1.733"]
 41
0.7
 51
15.0
  0
ENDBLK
  5
C8B5B
  8
0
  0
BLOCK
  8
0
  2
*U16
 70
     1
 10
0.0
 20
0.0
 30
0.0
  3
*U16
  1

  0
TEXT
  5
C8B80
  8
BEM1
 62
     4
 10
108.5726756080434
 20
21.933327829592741
 30
0.0
 40
3.0
  1
[0.492"]
 50
89.999999999999986
 41
0.7
 51
15.0
  0
ENDBLK
  5
C8B82
  8
0
  0
BLOCK
  8
0
  2
*U17
 70
     1
 10
0.0
 20
0.0
 30
0.0
  3
*U17
  1

  0
TEXT
  5
C8C05
  8
BEM1
 62
     4
 10
149.7359348848785
 20
182.662574535338
 30
0.0
 40
2.5
  1
[0.532"]
 50
90.0
 41
0.7
 51
15.0
  0
ENDBLK
  5
C8C07
  8
0
  0
BLOCK
  8
0
  2
*U18
 70
     1
 10
0.0
 20
0.0
 30
0.0
  3
*U18
  1

  0
TEXT
  5
C8C09
  8
BEM1
 62
     3
 10
144.73361959118441
 20
183.76577293746229
 30
0.0
 40
3.0
  1
\U+220513.5
 50
90.0
 41
0.7
 51
15.0
  0
ENDBLK
  5
C8C0B
  8
0
  0
ENDSEC
  0
SECTION
  2
ENTITIES
  0
INSERT
  5
30
  8
ASHADE
 62
     1
  2
AVE_RENDER
 10
0.0
 20
0.0
 30
0.0
1001
AVE_RENDER
1002
{
1070
     2
1000
Pref
1070
    40
1070
    20
1070
     1
1070
     0
1000

1070
    10
1070
     0
1070
    30
1040
1.0
1070
     1
1040
0.3
1040
0.7
1040
0.0
1040
10.0
1010
-1.0
1020
-1.0
1030
-1.0
1040
0.3
1070
    49
1002
}
  0
INSERT
  5
31
  8
ASHADE
 62
     3
  2
AVE_RENDER
 10
0.0
 20
0.0
 30
0.0
1001
AVE_RENDER
1002
{
1070
     0
1000
Full Opt
1070
     0
1070
     1
1070
     1
1070
     1
1070
     0
1070
     0
1070
     0
1070
     1
1070
     1
1040
0.0001
1040
0.0001
1002
}
  0
INSERT
  5
32
  8
ASHADE
 62
     4
  2
AVE_RENDER
 10
0.0
 20
0.0
 30
0.0
1001
AVE_RENDER
1002
{
1070
     0
1000
Quick Opt
1070
     0
1070
     1
1070
     1
1070
     1
1070
     1
1070
     0
1070
     1
1002
}
  0
INSERT
  5
36
  8
05
  2
NT_1
 10
98.709341459344387
 20
147.8406513925157
 30
0.0
 41
32.616999881868431
 42
-6.863009327815802
 43
32.616999881868431
  0
INSERT
  5
5EDB
  8
ASHADE
 62
     1
  2
AVE_RENDER
 10
139.2584724732869
 20
319.74439187690967
 30
0.0
1001
AVE_RENDER
1002
{
1070
     2
1000
Pref
1070
    40
1070
    20
1070
     1
1070
     0
1000

1070
    10
1070
     0
1070
    30
1040
1.0
1070
     1
1040
0.3
1040
0.7
1040
0.0
1040
10.0
1010
-1.0
1020
-1.0
1030
-1.0
1040
0.3
1070
    49
1002
}
  0
INSERT
  5
5EDC
  8
ASHADE
 62
     3
  2
AVE_RENDER
 10
139.2584724732869
 20
319.74439187690967
 30
0.0
1001
AVE_RENDER
1002
{
1070
     0
1000
Full Opt
1070
     0
1070
     1
1070
     1
1070
     1
1070
     0
1070
     0
1070
     0
1070
     1
1070
     1
1040
0.0001
1040
0.0001
1002
}
  0
INSERT
  5
5EDD
  8
ASHADE
 62
     4
  2
AVE_RENDER
 10
139.2584724732869
 20
319.74439187690967
 30
0.0
1001
AVE_RENDER
1002
{
1070
     0
1000
Quick Opt
1070
     0
1070
     1
1070
     1
1070
     1
1070
     1
1070
     0
1070
     1
1002
}
  0
INSERT
  5
5EDE
  8
05
  2
NT_1
 10
237.96781393263129
 20
467.5850432694254
 30
0.0
 41
32.616999881868431
 42
-6.863009327815802
 43
32.616999881868431
  0
TEXT
  5
6557
  8
035
 10
742.33535959621668
 20
834.37181105723107
 30
0.0
 40
3.5
  1
  
 41
0.7
 51
15.0
  0
INSERT
  5
6C6B
  8
ASHADE
 62
     1
  2
AVE_RENDER
 10
14.10550881943845
 20
318.02548562991842
 30
0.0
1001
AVE_RENDER
1002
{
1070
     2
1000
Pref
1070
    40
1070
    20
1070
     1
1070
     0
1000

1070
    10
1070
     0
1070
    30
1040
1.0
1070
     1
1040
0.3
1040
0.7
1040
0.0
1040
10.0
1010
-1.0
1020
-1.0
1030
-1.0
1040
0.3
1070
    49
1002
}
  0
INSERT
  5
6C6C
  8
ASHADE
 62
     3
  2
AVE_RENDER
 10
14.10550881943845
 20
318.02548562991842
 30
0.0
1001
AVE_RENDER
1002
{
1070
     0
1000
Full Opt
1070
     0
1070
     1
1070
     1
1070
     1
1070
     0
1070
     0
1070
     0
1070
     1
1070
     1
1040
0.0001
1040
0.0001
1002
}
  0
INSERT
  5
6C6D
  8
ASHADE
 62
     4
  2
AVE_RENDER
 10
14.10550881943845
 20
318.02548562991842
 30
0.0
1001
AVE_RENDER
1002
{
1070
     0
1000
Quick Opt
1070
     0
1070
     1
1070
     1
1070
     1
1070
     1
1070
     0
1070
     1
1002
}
  0
INSERT
  5
6C71
  8
05
  2
NT_1
 10
112.8148502787828
 20
465.86613702243409
 30
0.0
 41
32.616999881868431
 42
-6.863009327815802
 43
32.616999881868431
  0
INSERT
  5
CB16
  8
ASHADE
 62
     1
  2
AVE_RENDER
 10
153.36398129272541
 20
637.76987750682815
 30
0.0
1001
AVE_RENDER
1002
{
1070
     2
1000
Pref
1070
    40
1070
    20
1070
     1
1070
     0
1000

1070
    10
1070
     0
1070
    30
1040
1.0
1070
     1
1040
0.3
1040
0.7
1040
0.0
1040
10.0
1010
-1.0
1020
-1.0
1030
-1.0
1040
0.3
1070
    49
1002
}
  0
INSERT
  5
CB17
  8
ASHADE
 62
     3
  2
AVE_RENDER
 10
153.36398129272541
 20
637.76987750682815
 30
0.0
1001
AVE_RENDER
1002
{
1070
     0
1000
Full Opt
1070
     0
1070
     1
1070
     1
1070
     1
1070
     0
1070
     0
1070
     0
1070
     1
1070
     1
1040
0.0001
1040
0.0001
1002
}
  0
INSERT
  5
CB18
  8
ASHADE
 62
     4
  2
AVE_RENDER
 10
153.36398129272541
 20
637.76987750682815
 30
0.0
1001
AVE_RENDER
1002
{
1070
     0
1000
Quick Opt
1070
     0
1070
     1
1070
     1
1070
     1
1070
     1
1070
     0
1070
     1
1002
}
  0
INSERT
  5
CB19
  8
05
  2
NT_1
 10
252.0733227520698
 20
785.61052889934388
 30
0.0
 41
32.616999881868431
 42
-6.863009327815802
 43
32.616999881868431
  0
TEXT
  5
CE91
  8
025
 10
457.33314370182939
 20
249.37015260716711
 30
0.0
 40
2.5
  1

 41
0.9
 51
10.0
  7
HELV
  0
INSERT
  5
D021
  8
ASHADE
 62
     1
  2
AVE_RENDER
 10
177.79262395928001
 20
318.45175079003621
 30
0.0
1001
AVE_RENDER
1002
{
1070
     2
1000
Pref
1070
    40
1070
    20
1070
     1
1070
     0
1000

1070
    10
1070
     0
1070
    30
1040
1.0
1070
     1
1040
0.3
1040
0.7
1040
0.0
1040
10.0
1010
-1.0
1020
-1.0
1030
-1.0
1040
0.3
1070
    49
1002
}
  0
INSERT
  5
D022
  8
ASHADE
 62
     3
  2
AVE_RENDER
 10
177.79262395928001
 20
318.45175079003621
 30
0.0
1001
AVE_RENDER
1002
{
1070
     0
1000
Full Opt
1070
     0
1070
     1
1070
     1
1070
     1
1070
     0
1070
     0
1070
     0
1070
     1
1070
     1
1040
0.0001
1040
0.0001
1002
}
  0
INSERT
  5
D023
  8
ASHADE
 62
     4
  2
AVE_RENDER
 10
177.79262395928001
 20
318.45175079003621
 30
0.0
1001
AVE_RENDER
1002
{
1070
     0
1000
Quick Opt
1070
     0
1070
     1
1070
     1
1070
     1
1070
     1
1070
     0
1070
     1
1002
}
  0
INSERT
  5
D027
  8
05
  2
NT_1
 10
276.50196541862442
 20
466.29240218255183
 30
0.0
 41
32.616999881868431
 42
-6.863009327815802
 43
32.616999881868431
  0
INSERT
  5
F83A
  8
ASHADE
 62
     1
  2
AVE_RENDER
 10
483.64412677646112
 20
320.06243686168682
 30
0.0
1001
AVE_RENDER
1002
{
1070
     2
1000
Pref
1070
    40
1070
    20
1070
     1
1070
     0
1000

1070
    10
1070
     0
1070
    30
1040
1.0
1070
     1
1040
0.3
1040
0.7
1040
0.0
1040
10.0
1010
-1.0
1020
-1.0
1030
-1.0
1040
0.3
1070
    49
1002
}
  0
INSERT
  5
F83B
  8
ASHADE
 62
     3
  2
AVE_RENDER
 10
483.64412677646112
 20
320.06243686168682
 30
0.0
1001
AVE_RENDER
1002
{
1070
     0
1000
Full Opt
1070
     0
1070
     1
1070
     1
1070
     1
1070
     0
1070
     0
1070
     0
1070
     1
1070
     1
1040
0.0001
1040
0.0001
1002
}
  0
INSERT
  5
F83C
  8
ASHADE
 62
     4
  2
AVE_RENDER
 10
483.64412677646112
 20
320.06243686168682
 30
0.0
1001
AVE_RENDER
1002
{
1070
     0
1000
Quick Opt
1070
     0
1070
     1
1070
     1
1070
     1
1070
     1
1070
     0
1070
     1
1002
}
  0
INSERT
  5
F840
  8
05
  2
NT_1
 10
582.35346823580539
 20
467.90308825420249
 30
0.0
 41
32.616999881868431
 42
-6.863009327815802
 43
32.616999881868431
  0
INSERT
  5
13B62
  8
025
  2
ACAD
 10
177.79262395928001
 20
318.45175079003621
 30
0.0
  0
INSERT
  5
18666
  8
ASHADE
 62
     1
  2
AVE_RENDER
 10
474.79262395927998
 20
318.45175079003621
 30
0.0
1001
AVE_RENDER
1002
{
1070
     2
1000
Pref
1070
    40
1070
    20
1070
     1
1070
     0
1000

1070
    10
1070
     0
1070
    30
1040
1.0
1070
     1
1040
0.3
1040
0.7
1040
0.0
1040
10.0
1010
-1.0
1020
-1.0
1030
-1.0
1040
0.3
1070
    49
1002
}
  0
INSERT
  5
18667
  8
ASHADE
 62
     3
  2
AVE_RENDER
 10
474.79262395927998
 20
318.45175079003621
 30
0.0
1001
AVE_RENDER
1002
{
1070
     0
1000
Full Opt
1070
     0
1070
     1
1070
     1
1070
     1
1070
     0
1070
     0
1070
     0
1070
     1
1070
     1
1040
0.0001
1040
0.0001
1002
}
  0
INSERT
  5
18668
  8
ASHADE
 62
     4
  2
AVE_RENDER
 10
474.79262395927998
 20
318.45175079003621
 30
0.0
1001
AVE_RENDER
1002
{
1070
     0
1000
Quick Opt
1070
     0
1070
     1
1070
     1
1070
     1
1070
     1
1070
     0
1070
     1
1002
}
  0
INSERT
  5
1866C
  8
05
  2
NT_1
 10
573.50196541862442
 20
466.29240218255183
 30
0.0
 41
32.616999881868431
 42
-6.863009327815802
 43
32.616999881868431
  0
INSERT
  5
1AE7F
  8
ASHADE
 62
     1
  2
AVE_RENDER
 10
780.64412677646112
 20
320.06243686168682
 30
0.0
1001
AVE_RENDER
1002
{
1070
     2
1000
Pref
1070
    40
1070
    20
1070
     1
1070
     0
1000

1070
    10
1070
     0
1070
    30
1040
1.0
1070
     1
1040
0.3
1040
0.7
1040
0.0
1040
10.0
1010
-1.0
1020
-1.0
1030
-1.0
1040
0.3
1070
    49
1002
}
  0
INSERT
  5
1AE80
  8
ASHADE
 62
     3
  2
AVE_RENDER
 10
780.64412677646112
 20
320.06243686168682
 30
0.0
1001
AVE_RENDER
1002
{
1070
     0
1000
Full Opt
1070
     0
1070
     1
1070
     1
1070
     1
1070
     0
1070
     0
1070
     0
1070
     1
1070
     1
1040
0.0001
1040
0.0001
1002
}
  0
INSERT
  5
1AE81
  8
ASHADE
 62
     4
  2
AVE_RENDER
 10
780.64412677646112
 20
320.06243686168682
 30
0.0
1001
AVE_RENDER
1002
{
1070
     0
1000
Quick Opt
1070
     0
1070
     1
1070
     1
1070
     1
1070
     1
1070
     0
1070
     1
1002
}
  0
INSERT
  5
1AE85
  8
05
  2
NT_1
 10
879.35346823580551
 20
467.90308825420249
 30
0.0
 41
32.616999881868431
 42
-6.863009327815802
 43
32.616999881868431
  0
INSERT
  5
1F1A7
  8
025
  2
ACAD
 10
474.79262395927998
 20
318.45175079003621
 30
0.0
  0
INSERT
  5
2812E
  8
ASHADE
 62
     1
  2
AVE_RENDER
 10
248.19672146903119
 20
315.77942577811808
 30
0.0
1001
AVE_RENDER
1002
{
1070
     2
1000
Pref
1070
    40
1070
    20
1070
     1
1070
     0
1000

1070
    10
1070
     0
1070
    30
1040
1.0
1070
     1
1040
0.3
1040
0.7
1040
0.0
1040
10.0
1010
-1.0
1020
-1.0
1030
-1.0
1040
0.3
1070
    49
1002
}
  0
INSERT
  5
2812F
  8
ASHADE
 62
     3
  2
AVE_RENDER
 10
248.19672146903119
 20
315.77942577811808
 30
0.0
1001
AVE_RENDER
1002
{
1070
     0
1000
Full Opt
1070
     0
1070
     1
1070
     1
1070
     1
1070
     0
1070
     0
1070
     0
1070
     1
1070
     1
1040
0.0001
1040
0.0001
1002
}
  0
INSERT
  5
28130
  8
ASHADE
 62
     4
  2
AVE_RENDER
 10
248.19672146903119
 20
315.77942577811808
 30
0.0
1001
AVE_RENDER
1002
{
1070
     0
1000
Quick Opt
1070
     0
1070
     1
1070
     1
1070
     1
1070
     1
1070
     0
1070
     1
1002
}
  0
INSERT
  5
28134
  8
05
  2
NT_1
 10
346.9060629283756
 20
463.62007717063381
 30
0.0
 41
32.616999881868431
 42
-6.863009327815802
 43
32.616999881868431
  0
INSERT
  5
2A313
  8
ASHADE
 62
     1
  2
AVE_RENDER
 10
222.35217958965109
 20
320.2332987002444
 30
0.0
1001
AVE_RENDER
1002
{
1070
     2
1000
Pref
1070
    40
1070
    20
1070
     1
1070
     0
1000

1070
    10
1070
     0
1070
    30
1040
1.0
1070
     1
1040
0.3
1040
0.7
1040
0.0
1040
10.0
1010
-1.0
1020
-1.0
1030
-1.0
1040
0.3
1070
    49
1002
}
  0
INSERT
  5
2A314
  8
ASHADE
 62
     3
  2
AVE_RENDER
 10
222.35217958965109
 20
320.2332987002444
 30
0.0
1001
AVE_RENDER
1002
{
1070
     0
1000
Full Opt
1070
     0
1070
     1
1070
     1
1070
     1
1070
     0
1070
     0
1070
     0
1070
     1
1070
     1
1040
0.0001
1040
0.0001
1002
}
  0
INSERT
  5
2A315
  8
ASHADE
 62
     4
  2
AVE_RENDER
 10
222.35217958965109
 20
320.2332987002444
 30
0.0
1001
AVE_RENDER
1002
{
1070
     0
1000
Quick Opt
1070
     0
1070
     1
1070
     1
1070
     1
1070
     1
1070
     0
1070
     1
1002
}
  0
INSERT
  5
2A319
  8
05
  2
NT_1
 10
321.06152104899547
 20
468.07395009276007
 30
0.0
 41
32.616999881868431
 42
-6.863009327815802
 43
32.616999881868431
  0
INSERT
  5
2BC33
  8
025
  2
ACAD
 10
0.0
 20
0.0
 30
0.0
  0
INSERT
  5
2C19F
  8
BEM1
  2
ACAD
 10
0.0
 20
0.0
 30
0.0
  0
TEXT
  5
2DD8B
  8
035
 10
950.78969748207055
 20
673.50153189376704
 30
0.0
 40
3.5
  1
  
 41
0.7
 51
15.0
  0
TEXT
  5
2DF0A
  8
035
 10
978.47365150412168
 20
819.61050501042905
 30
0.0
 40
3.5
  1
  
 41
0.7
 51
15.0
  0
TEXT
  5
2DF0B
  8
035
 10
928.4816663389156
 20
938.69927460151371
 30
0.0
 40
3.5
  1
  
 41
0.7
 51
15.0
  0
TEXT
  5
2DF0C
  8
035
 10
1009.084383720612
 20
848.69625894311059
 30
0.0
 40
3.5
  1
  
 41
0.7
 51
15.0
  0
TEXT
  5
2DF0D
  8
035
 10
959.09239855540591
 20
967.78502853419525
 30
0.0
 40
3.5
  1
  
 41
0.7
 51
15.0
  0
TEXT
  5
2DF0E
  8
035
 10
978.47365150412168
 20
819.61050501042905
 30
0.0
 40
3.5
  1
  
 41
0.7
 51
15.0
  0
TEXT
  5
2DF0F
  8
035
 10
928.4816663389156
 20
938.69927460151371
 30
0.0
 40
3.5
  1
  
 41
0.7
 51
15.0
  0
TEXT
  5
2DF10
  8
035
 10
1152.777740191463
 20
1044.4560359738209
 30
0.0
 40
3.5
  1
  
 41
0.7
 51
15.0
  0
TEXT
  5
2DF11
  8
035
 10
1102.785755026257
 20
1163.544805564906
 30
0.0
 40
3.5
  1
  
 41
0.7
 51
15.0
  0
INSERT
  5
2E1B5
  8
ASHADE
 62
     1
  2
AVE_RENDER
 10
244.82419402977879
 20
199.99189244064601
 30
0.0
1001
AVE_RENDER
1002
{
1070
     2
1000
Pref
1070
    40
1070
    20
1070
     1
1070
     0
1000

1070
    10
1070
     0
1070
    30
1040
1.0
1070
     1
1040
0.3
1040
0.7
1040
0.0
1040
10.0
1010
-1.0
1020
-1.0
1030
-1.0
1040
0.3
1070
    49
1002
}
  0
INSERT
  5
2E1B6
  8
ASHADE
 62
     3
  2
AVE_RENDER
 10
244.82419402977879
 20
199.99189244064601
 30
0.0
1001
AVE_RENDER
1002
{
1070
     0
1000
Full Opt
1070
     0
1070
     1
1070
     1
1070
     1
1070
     0
1070
     0
1070
     0
1070
     1
1070
     1
1040
0.0001
1040
0.0001
1002
}
  0
INSERT
  5
2E1B7
  8
ASHADE
 62
     4
  2
AVE_RENDER
 10
244.82419402977879
 20
199.99189244064601
 30
0.0
1001
AVE_RENDER
1002
{
1070
     0
1000
Quick Opt
1070
     0
1070
     1
1070
     1
1070
     1
1070
     1
1070
     0
1070
     1
1002
}
  0
INSERT
  5
2E1BB
  8
05
  2
NT_1
 10
343.53353548912321
 20
347.83254383316182
 30
0.0
 41
32.616999881868431
 42
-6.863009327815802
 43
32.616999881868431
  0
INSERT
  5
309CE
  8
ASHADE
 62
     1
  2
AVE_RENDER
 10
550.6756968469598
 20
201.6025785122967
 30
0.0
1001
AVE_RENDER
1002
{
1070
     2
1000
Pref
1070
    40
1070
    20
1070
     1
1070
     0
1000

1070
    10
1070
     0
1070
    30
1040
1.0
1070
     1
1040
0.3
1040
0.7
1040
0.0
1040
10.0
1010
-1.0
1020
-1.0
1030
-1.0
1040
0.3
1070
    49
1002
}
  0
INSERT
  5
309CF
  8
ASHADE
 62
     3
  2
AVE_RENDER
 10
550.6756968469598
 20
201.6025785122967
 30
0.0
1001
AVE_RENDER
1002
{
1070
     0
1000
Full Opt
1070
     0
1070
     1
1070
     1
1070
     1
1070
     0
1070
     0
1070
     0
1070
     1
1070
     1
1040
0.0001
1040
0.0001
1002
}
  0
INSERT
  5
309D0
  8
ASHADE
 62
     4
  2
AVE_RENDER
 10
550.6756968469598
 20
201.6025785122967
 30
0.0
1001
AVE_RENDER
1002
{
1070
     0
1000
Quick Opt
1070
     0
1070
     1
1070
     1
1070
     1
1070
     1
1070
     0
1070
     1
1002
}
  0
INSERT
  5
309D4
  8
05
  2
NT_1
 10
649.38503830630418
 20
349.44322990481243
 30
0.0
 41
32.616999881868431
 42
-6.863009327815802
 43
32.616999881868431
  0
INSERT
  5
34CF6
  8
025
  2
ACAD
 10
244.82419402977879
 20
199.99189244064601
 30
0.0
  0
INSERT
  5
397FA
  8
ASHADE
 62
     1
  2
AVE_RENDER
 10
541.82419402977882
 20
199.99189244064601
 30
0.0
1001
AVE_RENDER
1002
{
1070
     2
1000
Pref
1070
    40
1070
    20
1070
     1
1070
     0
1000

1070
    10
1070
     0
1070
    30
1040
1.0
1070
     1
1040
0.3
1040
0.7
1040
0.0
1040
10.0
1010
-1.0
1020
-1.0
1030
-1.0
1040
0.3
1070
    49
1002
}
  0
INSERT
  5
397FB
  8
ASHADE
 62
     3
  2
AVE_RENDER
 10
541.82419402977882
 20
199.99189244064601
 30
0.0
1001
AVE_RENDER
1002
{
1070
     0
1000
Full Opt
1070
     0
1070
     1
1070
     1
1070
     1
1070
     0
1070
     0
1070
     0
1070
     1
1070
     1
1040
0.0001
1040
0.0001
1002
}
  0
INSERT
  5
397FC
  8
ASHADE
 62
     4
  2
AVE_RENDER
 10
541.82419402977882
 20
199.99189244064601
 30
0.0
1001
AVE_RENDER
1002
{
1070
     0
1000
Quick Opt
1070
     0
1070
     1
1070
     1
1070
     1
1070
     1
1070
     0
1070
     1
1002
}
  0
INSERT
  5
39800
  8
05
  2
NT_1
 10
640.5335354891231
 20
347.83254383316182
 30
0.0
 41
32.616999881868431
 42
-6.863009327815802
 43
32.616999881868431
  0
INSERT
  5
3C013
  8
ASHADE
 62
     1
  2
AVE_RENDER
 10
847.67569684695991
 20
201.6025785122967
 30
0.0
1001
AVE_RENDER
1002
{
1070
     2
1000
Pref
1070
    40
1070
    20
1070
     1
1070
     0
1000

1070
    10
1070
     0
1070
    30
1040
1.0
1070
     1
1040
0.3
1040
0.7
1040
0.0
1040
10.0
1010
-1.0
1020
-1.0
1030
-1.0
1040
0.3
1070
    49
1002
}
  0
INSERT
  5
3C014
  8
ASHADE
 62
     3
  2
AVE_RENDER
 10
847.67569684695991
 20
201.6025785122967
 30
0.0
1001
AVE_RENDER
1002
{
1070
     0
1000
Full Opt
1070
     0
1070
     1
1070
     1
1070
     1
1070
     0
1070
     0
1070
     0
1070
     1
1070
     1
1040
0.0001
1040
0.0001
1002
}
  0
INSERT
  5
3C015
  8
ASHADE
 62
     4
  2
AVE_RENDER
 10
847.67569684695991
 20
201.6025785122967
 30
0.0
1001
AVE_RENDER
1002
{
1070
     0
1000
Quick Opt
1070
     0
1070
     1
1070
     1
1070
     1
1070
     1
1070
     0
1070
     1
1002
}
  0
INSERT
  5
3C019
  8
05
  2
NT_1
 10
946.3850383063043
 20
349.44322990481243
 30
0.0
 41
32.616999881868431
 42
-6.863009327815802
 43
32.616999881868431
  0
INSERT
  5
4033B
  8
025
  2
ACAD
 10
541.82419402977882
 20
199.99189244064601
 30
0.0
  0
INSERT
  5
46838
  8
ASHADE
 62
     1
  2
AVE_RENDER
 10
246.40049081017989
 20
209.83609286750331
 30
0.0
1001
AVE_RENDER
1002
{
1070
     2
1000
Pref
1070
    40
1070
    20
1070
     1
1070
     0
1000

1070
    10
1070
     0
1070
    30
1040
1.0
1070
     1
1040
0.3
1040
0.7
1040
0.0
1040
10.0
1010
-1.0
1020
-1.0
1030
-1.0
1040
0.3
1070
    49
1002
}
  0
INSERT
  5
46839
  8
ASHADE
 62
     3
  2
AVE_RENDER
 10
246.40049081017989
 20
209.83609286750331
 30
0.0
1001
AVE_RENDER
1002
{
1070
     0
1000
Full Opt
1070
     0
1070
     1
1070
     1
1070
     1
1070
     0
1070
     0
1070
     0
1070
     1
1070
     1
1040
0.0001
1040
0.0001
1002
}
  0
INSERT
  5
4683A
  8
ASHADE
 62
     4
  2
AVE_RENDER
 10
246.40049081017989
 20
209.83609286750331
 30
0.0
1001
AVE_RENDER
1002
{
1070
     0
1000
Quick Opt
1070
     0
1070
     1
1070
     1
1070
     1
1070
     1
1070
     0
1070
     1
1002
}
  0
INSERT
  5
4683E
  8
05
  2
NT_1
 10
345.1098322695243
 20
357.67674426001901
 30
0.0
 41
32.616999881868431
 42
-6.863009327815802
 43
32.616999881868431
  0
INSERT
  5
49CC2
  8
05
  2
ACAD
 10
246.40049081017989
 20
209.83609286750331
 30
0.0
  0
INSERT
  5
A6093
  8
ASHADE
 62
     1
  2
AVE_RENDER
 10
246.40049081017989
 20
419.83609286750328
 30
0.0
1001
AVE_RENDER
1002
{
1070
     2
1000
Pref
1070
    40
1070
    20
1070
     1
1070
     0
1000

1070
    10
1070
     0
1070
    30
1040
1.0
1070
     1
1040
0.3
1040
0.7
1040
0.0
1040
10.0
1010
-1.0
1020
-1.0
1030
-1.0
1040
0.3
1070
    49
1002
}
  0
INSERT
  5
A6094
  8
ASHADE
 62
     3
  2
AVE_RENDER
 10
246.40049081017989
 20
419.83609286750328
 30
0.0
1001
AVE_RENDER
1002
{
1070
     0
1000
Full Opt
1070
     0
1070
     1
1070
     1
1070
     1
1070
     0
1070
     0
1070
     0
1070
     1
1070
     1
1040
0.0001
1040
0.0001
1002
}
  0
INSERT
  5
A6095
  8
ASHADE
 62
     4
  2
AVE_RENDER
 10
246.40049081017989
 20
419.83609286750328
 30
0.0
1001
AVE_RENDER
1002
{
1070
     0
1000
Quick Opt
1070
     0
1070
     1
1070
     1
1070
     1
1070
     1
1070
     0
1070
     1
1002
}
  0
INSERT
  5
A6096
  8
05
  2
NT_1
 10
345.1098322695243
 20
567.67674426001906
 30
0.0
 41
32.616999881868431
 42
-6.863009327815802
 43
32.616999881868431
  0
INSERT
  5
A627D
  8
05
  2
ACAD
 10
246.40049081017989
 20
419.83609286750328
 30
0.0
  0
INSERT
  5
A6356
  8
ASHADE
 62
     1
  2
AVE_RENDER
 10
543.4004908101798
 20
419.83609286750328
 30
0.0
1001
AVE_RENDER
1002
{
1070
     2
1000
Pref
1070
    40
1070
    20
1070
     1
1070
     0
1000

1070
    10
1070
     0
1070
    30
1040
1.0
1070
     1
1040
0.3
1040
0.7
1040
0.0
1040
10.0
1010
-1.0
1020
-1.0
1030
-1.0
1040
0.3
1070
    49
1002
}
  0
INSERT
  5
A6357
  8
ASHADE
 62
     3
  2
AVE_RENDER
 10
543.4004908101798
 20
419.83609286750328
 30
0.0
1001
AVE_RENDER
1002
{
1070
     0
1000
Full Opt
1070
     0
1070
     1
1070
     1
1070
     1
1070
     0
1070
     0
1070
     0
1070
     1
1070
     1
1040
0.0001
1040
0.0001
1002
}
  0
INSERT
  5
A6358
  8
ASHADE
 62
     4
  2
AVE_RENDER
 10
543.4004908101798
 20
419.83609286750328
 30
0.0
1001
AVE_RENDER
1002
{
1070
     0
1000
Quick Opt
1070
     0
1070
     1
1070
     1
1070
     1
1070
     1
1070
     0
1070
     1
1002
}
  0
INSERT
  5
A6359
  8
05
  2
NT_1
 10
642.1098322695243
 20
567.67674426001906
 30
0.0
 41
32.616999881868431
 42
-6.863009327815802
 43
32.616999881868431
  0
INSERT
  5
A635A
  8
05
  2
ACAD
 10
543.4004908101798
 20
419.83609286750328
 30
0.0
  0
INSERT
  5
A635B
  8
ASHADE
 62
     1
  2
AVE_RENDER
 10
543.4004908101798
 20
419.83609286750328
 30
0.0
1001
AVE_RENDER
1002
{
1070
     2
1000
Pref
1070
    40
1070
    20
1070
     1
1070
     0
1000

1070
    10
1070
     0
1070
    30
1040
1.0
1070
     1
1040
0.3
1040
0.7
1040
0.0
1040
10.0
1010
-1.0
1020
-1.0
1030
-1.0
1040
0.3
1070
    49
1002
}
  0
INSERT
  5
A635C
  8
ASHADE
 62
     3
  2
AVE_RENDER
 10
543.4004908101798
 20
419.83609286750328
 30
0.0
1001
AVE_RENDER
1002
{
1070
     0
1000
Full Opt
1070
     0
1070
     1
1070
     1
1070
     1
1070
     0
1070
     0
1070
     0
1070
     1
1070
     1
1040
0.0001
1040
0.0001
1002
}
  0
INSERT
  5
A635D
  8
ASHADE
 62
     4
  2
AVE_RENDER
 10
543.4004908101798
 20
419.83609286750328
 30
0.0
1001
AVE_RENDER
1002
{
1070
     0
1000
Quick Opt
1070
     0
1070
     1
1070
     1
1070
     1
1070
     1
1070
     0
1070
     1
1002
}
  0
INSERT
  5
A635E
  8
05
  2
NT_1
 10
642.1098322695243
 20
567.67674426001906
 30
0.0
 41
32.616999881868431
 42
-6.863009327815802
 43
32.616999881868431
  0
INSERT
  5
A6366
  8
05
  2
ACAD
 10
543.4004908101798
 20
419.83609286750328
 30
0.0
  0
INSERT
  5
A63C1
  8
ASHADE
 62
     1
  2
AVE_RENDER
 10
562.50416543307153
 20
417.84741932227598
 30
0.0
1001
AVE_RENDER
1002
{
1070
     2
1000
Pref
1070
    40
1070
    20
1070
     1
1070
     0
1000

1070
    10
1070
     0
1070
    30
1040
1.0
1070
     1
1040
0.3
1040
0.7
1040
0.0
1040
10.0
1010
-1.0
1020
-1.0
1030
-1.0
1040
0.3
1070
    49
1002
}
  0
INSERT
  5
A63C2
  8
ASHADE
 62
     3
  2
AVE_RENDER
 10
562.50416543307153
 20
417.84741932227598
 30
0.0
1001
AVE_RENDER
1002
{
1070
     0
1000
Full Opt
1070
     0
1070
     1
1070
     1
1070
     1
1070
     0
1070
     0
1070
     0
1070
     1
1070
     1
1040
0.0001
1040
0.0001
1002
}
  0
INSERT
  5
A63C3
  8
ASHADE
 62
     4
  2
AVE_RENDER
 10
562.50416543307153
 20
417.84741932227598
 30
0.0
1001
AVE_RENDER
1002
{
1070
     0
1000
Quick Opt
1070
     0
1070
     1
1070
     1
1070
     1
1070
     1
1070
     0
1070
     1
1002
}
  0
INSERT
  5
A63C4
  8
05
  2
NT_1
 10
661.21350689241592
 20
565.68807071479171
 30
0.0
 41
32.616999881868431
 42
-6.863009327815802
 43
32.616999881868431
  0
INSERT
  5
A63F3
  8
05
  2
ACAD
 10
562.50416543307153
 20
417.84741932227598
 30
0.0
  0
TEXT
  5
A645C
  8
035
 10
1065.919528474979
 20
886.44279190053055
 30
0.0
 40
3.5
  1
  
 41
0.7
 51
15.0
  0
INSERT
  5
A6463
  8
ASHADE
 62
     1
  2
AVE_RENDER
 10
543.4004908101798
 20
419.83609286750328
 30
0.0
1001
AVE_RENDER
1002
{
1070
     2
1000
Pref
1070
    40
1070
    20
1070
     1
1070
     0
1000

1070
    10
1070
     0
1070
    30
1040
1.0
1070
     1
1040
0.3
1040
0.7
1040
0.0
1040
10.0
1010
-1.0
1020
-1.0
1030
-1.0
1040
0.3
1070
    49
1002
}
  0
INSERT
  5
A6464
  8
ASHADE
 62
     3
  2
AVE_RENDER
 10
543.4004908101798
 20
419.83609286750328
 30
0.0
1001
AVE_RENDER
1002
{
1070
     0
1000
Full Opt
1070
     0
1070
     1
1070
     1
1070
     1
1070
     0
1070
     0
1070
     0
1070
     1
1070
     1
1040
0.0001
1040
0.0001
1002
}
  0
INSERT
  5
A6465
  8
ASHADE
 62
     4
  2
AVE_RENDER
 10
543.4004908101798
 20
419.83609286750328
 30
0.0
1001
AVE_RENDER
1002
{
1070
     0
1000
Quick Opt
1070
     0
1070
     1
1070
     1
1070
     1
1070
     1
1070
     0
1070
     1
1002
}
  0
INSERT
  5
A6466
  8
05
  2
NT_1
 10
642.1098322695243
 20
567.67674426001906
 30
0.0
 41
32.616999881868431
 42
-6.863009327815802
 43
32.616999881868431
  0
INSERT
  5
A6652
  8
05
  2
ACAD
 10
543.4004908101798
 20
419.83609286750328
 30
0.0
  0
INSERT
  5
A6797
  8
ASHADE
 62
     1
  2
AVE_RENDER
 10
840.4004908101798
 20
419.83609286750328
 30
0.0
1001
AVE_RENDER
1002
{
1070
     2
1000
Pref
1070
    40
1070
    20
1070
     1
1070
     0
1000

1070
    10
1070
     0
1070
    30
1040
1.0
1070
     1
1040
0.3
1040
0.7
1040
0.0
1040
10.0
1010
-1.0
1020
-1.0
1030
-1.0
1040
0.3
1070
    49
1002
}
  0
INSERT
  5
A6798
  8
ASHADE
 62
     3
  2
AVE_RENDER
 10
840.4004908101798
 20
419.83609286750328
 30
0.0
1001
AVE_RENDER
1002
{
1070
     0
1000
Full Opt
1070
     0
1070
     1
1070
     1
1070
     1
1070
     0
1070
     0
1070
     0
1070
     1
1070
     1
1040
0.0001
1040
0.0001
1002
}
  0
INSERT
  5
A6799
  8
ASHADE
 62
     4
  2
AVE_RENDER
 10
840.4004908101798
 20
419.83609286750328
 30
0.0
1001
AVE_RENDER
1002
{
1070
     0
1000
Quick Opt
1070
     0
1070
     1
1070
     1
1070
     1
1070
     1
1070
     0
1070
     1
1002
}
  0
INSERT
  5
A679A
  8
05
  2
NT_1
 10
939.10983226952419
 20
567.67674426001906
 30
0.0
 41
32.616999881868431
 42
-6.863009327815802
 43
32.616999881868431
  0
INSERT
  5
A67B9
  8
05
  2
ACAD
 10
840.4004908101798
 20
419.83609286750328
 30
0.0
  0
INSERT
  5
A67C1
  8
ASHADE
 62
     1
  2
AVE_RENDER
 10
840.4004908101798
 20
419.83609286750328
 30
0.0
1001
AVE_RENDER
1002
{
1070
     2
1000
Pref
1070
    40
1070
    20
1070
     1
1070
     0
1000

1070
    10
1070
     0
1070
    30
1040
1.0
1070
     1
1040
0.3
1040
0.7
1040
0.0
1040
10.0
1010
-1.0
1020
-1.0
1030
-1.0
1040
0.3
1070
    49
1002
}
  0
INSERT
  5
A67C2
  8
ASHADE
 62
     3
  2
AVE_RENDER
 10
840.4004908101798
 20
419.83609286750328
 30
0.0
1001
AVE_RENDER
1002
{
1070
     0
1000
Full Opt
1070
     0
1070
     1
1070
     1
1070
     1
1070
     0
1070
     0
1070
     0
1070
     1
1070
     1
1040
0.0001
1040
0.0001
1002
}
  0
INSERT
  5
A67C3
  8
ASHADE
 62
     4
  2
AVE_RENDER
 10
840.4004908101798
 20
419.83609286750328
 30
0.0
1001
AVE_RENDER
1002
{
1070
     0
1000
Quick Opt
1070
     0
1070
     1
1070
     1
1070
     1
1070
     1
1070
     0
1070
     1
1002
}
  0
INSERT
  5
A67C4
  8
05
  2
NT_1
 10
939.10983226952419
 20
567.67674426001906
 30
0.0
 41
32.616999881868431
 42
-6.863009327815802
 43
32.616999881868431
  0
INSERT
  5
A67CC
  8
05
  2
ACAD
 10
840.4004908101798
 20
419.83609286750328
 30
0.0
  0
INSERT
  5
A682D
  8
ASHADE
 62
     1
  2
AVE_RENDER
 10
543.4004908101798
 20
209.83609286750331
 30
0.0
1001
AVE_RENDER
1002
{
1070
     2
1000
Pref
1070
    40
1070
    20
1070
     1
1070
     0
1000

1070
    10
1070
     0
1070
    30
1040
1.0
1070
     1
1040
0.3
1040
0.7
1040
0.0
1040
10.0
1010
-1.0
1020
-1.0
1030
-1.0
1040
0.3
1070
    49
1002
}
  0
INSERT
  5
A682E
  8
ASHADE
 62
     3
  2
AVE_RENDER
 10
543.4004908101798
 20
209.83609286750331
 30
0.0
1001
AVE_RENDER
1002
{
1070
     0
1000
Full Opt
1070
     0
1070
     1
1070
     1
1070
     1
1070
     0
1070
     0
1070
     0
1070
     1
1070
     1
1040
0.0001
1040
0.0001
1002
}
  0
INSERT
  5
A682F
  8
ASHADE
 62
     4
  2
AVE_RENDER
 10
543.4004908101798
 20
209.83609286750331
 30
0.0
1001
AVE_RENDER
1002
{
1070
     0
1000
Quick Opt
1070
     0
1070
     1
1070
     1
1070
     1
1070
     1
1070
     0
1070
     1
1002
}
  0
INSERT
  5
A6830
  8
05
  2
NT_1
 10
642.1098322695243
 20
357.67674426001901
 30
0.0
 41
32.616999881868431
 42
-6.863009327815802
 43
32.616999881868431
  0
INSERT
  5
A6AAF
  8
05
  2
ACAD
 10
543.4004908101798
 20
209.83609286750331
 30
0.0
  0
INSERT
  5
A6BA6
  8
ASHADE
 62
     1
  2
AVE_RENDER
 10
442.43780209146769
 20
192.1506614902996
 30
0.0
1001
AVE_RENDER
1002
{
1070
     2
1000
Pref
1070
    40
1070
    20
1070
     1
1070
     0
1000

1070
    10
1070
     0
1070
    30
1040
1.0
1070
     1
1040
0.3
1040
0.7
1040
0.0
1040
10.0
1010
-1.0
1020
-1.0
1030
-1.0
1040
0.3
1070
    49
1002
}
  0
INSERT
  5
A6BA7
  8
ASHADE
 62
     3
  2
AVE_RENDER
 10
442.43780209146769
 20
192.1506614902996
 30
0.0
1001
AVE_RENDER
1002
{
1070
     0
1000
Full Opt
1070
     0
1070
     1
1070
     1
1070
     1
1070
     0
1070
     0
1070
     0
1070
     1
1070
     1
1040
0.0001
1040
0.0001
1002
}
  0
INSERT
  5
A6BA8
  8
ASHADE
 62
     4
  2
AVE_RENDER
 10
442.43780209146769
 20
192.1506614902996
 30
0.0
1001
AVE_RENDER
1002
{
1070
     0
1000
Quick Opt
1070
     0
1070
     1
1070
     1
1070
     1
1070
     1
1070
     0
1070
     1
1002
}
  0
INSERT
  5
A6BAC
  8
05
  2
NT_1
 10
541.14714355081207
 20
339.99131288281541
 30
0.0
 41
32.616999881868431
 42
-6.863009327815802
 43
32.616999881868431
  0
INSERT
  5
AA030
  8
05
  2
ACAD
 10
442.43780209146769
 20
192.1506614902996
 30
0.0
  0
INSERT
  5
B323C
  8
ASHADE
 62
     1
  2
AVE_RENDER
 10
739.4378020914678
 20
192.1506614902996
 30
0.0
1001
AVE_RENDER
1002
{
1070
     2
1000
Pref
1070
    40
1070
    20
1070
     1
1070
     0
1000

1070
    10
1070
     0
1070
    30
1040
1.0
1070
     1
1040
0.3
1040
0.7
1040
0.0
1040
10.0
1010
-1.0
1020
-1.0
1030
-1.0
1040
0.3
1070
    49
1002
}
  0
INSERT
  5
B323D
  8
ASHADE
 62
     3
  2
AVE_RENDER
 10
739.4378020914678
 20
192.1506614902996
 30
0.0
1001
AVE_RENDER
1002
{
1070
     0
1000
Full Opt
1070
     0
1070
     1
1070
     1
1070
     1
1070
     0
1070
     0
1070
     0
1070
     1
1070
     1
1040
0.0001
1040
0.0001
1002
}
  0
INSERT
  5
B323E
  8
ASHADE
 62
     4
  2
AVE_RENDER
 10
739.4378020914678
 20
192.1506614902996
 30
0.0
1001
AVE_RENDER
1002
{
1070
     0
1000
Quick Opt
1070
     0
1070
     1
1070
     1
1070
     1
1070
     1
1070
     0
1070
     1
1002
}
  0
INSERT
  5
B323F
  8
05
  2
NT_1
 10
838.14714355081207
 20
339.99131288281541
 30
0.0
 41
32.616999881868431
 42
-6.863009327815802
 43
32.616999881868431
  0
INSERT
  5
B3525
  8
05
  2
ACAD
 10
739.4378020914678
 20
192.1506614902996
 30
0.0
  0
INSERT
  5
B35C3
  8
ASHADE
 62
     1
  2
AVE_RENDER
 10
739.4378020914678
 20
192.1506614902996
 30
0.0
1001
AVE_RENDER
1002
{
1070
     2
1000
Pref
1070
    40
1070
    20
1070
     1
1070
     0
1000

1070
    10
1070
     0
1070
    30
1040
1.0
1070
     1
1040
0.3
1040
0.7
1040
0.0
1040
10.0
1010
-1.0
1020
-1.0
1030
-1.0
1040
0.3
1070
    49
1002
}
  0
INSERT
  5
B35C4
  8
ASHADE
 62
     3
  2
AVE_RENDER
 10
739.4378020914678
 20
192.1506614902996
 30
0.0
1001
AVE_RENDER
1002
{
1070
     0
1000
Full Opt
1070
     0
1070
     1
1070
     1
1070
     1
1070
     0
1070
     0
1070
     0
1070
     1
1070
     1
1040
0.0001
1040
0.0001
1002
}
  0
INSERT
  5
B35C5
  8
ASHADE
 62
     4
  2
AVE_RENDER
 10
739.4378020914678
 20
192.1506614902996
 30
0.0
1001
AVE_RENDER
1002
{
1070
     0
1000
Quick Opt
1070
     0
1070
     1
1070
     1
1070
     1
1070
     1
1070
     0
1070
     1
1002
}
  0
INSERT
  5
B35C6
  8
05
  2
NT_1
 10
838.14714355081207
 20
339.99131288281541
 30
0.0
 41
32.616999881868431
 42
-6.863009327815802
 43
32.616999881868431
  0
INSERT
  5
B38AC
  8
05
  2
ACAD
 10
739.4378020914678
 20
192.1506614902996
 30
0.0
  0
INSERT
  5
B39E5
  8
ASHADE
 62
     1
  2
AVE_RENDER
 10
758.54147671435942
 20
190.16198794507221
 30
0.0
1001
AVE_RENDER
1002
{
1070
     2
1000
Pref
1070
    40
1070
    20
1070
     1
1070
     0
1000

1070
    10
1070
     0
1070
    30
1040
1.0
1070
     1
1040
0.3
1040
0.7
1040
0.0
1040
10.0
1010
-1.0
1020
-1.0
1030
-1.0
1040
0.3
1070
    49
1002
}
  0
INSERT
  5
B39E6
  8
ASHADE
 62
     3
  2
AVE_RENDER
 10
758.54147671435942
 20
190.16198794507221
 30
0.0
1001
AVE_RENDER
1002
{
1070
     0
1000
Full Opt
1070
     0
1070
     1
1070
     1
1070
     1
1070
     0
1070
     0
1070
     0
1070
     1
1070
     1
1040
0.0001
1040
0.0001
1002
}
  0
INSERT
  5
B39E7
  8
ASHADE
 62
     4
  2
AVE_RENDER
 10
758.54147671435942
 20
190.16198794507221
 30
0.0
1001
AVE_RENDER
1002
{
1070
     0
1000
Quick Opt
1070
     0
1070
     1
1070
     1
1070
     1
1070
     1
1070
     0
1070
     1
1002
}
  0
INSERT
  5
B39EB
  8
05
  2
NT_1
 10
857.25081817370381
 20
338.00263933758799
 30
0.0
 41
32.616999881868431
 42
-6.863009327815802
 43
32.616999881868431
  0
INSERT
  5
B6E6F
  8
05
  2
ACAD
 10
758.54147671435942
 20
190.16198794507221
 30
0.0
  0
POLYLINE
  5
C703F
  8
RAHMEN
 66
     1
 10
0.0
 20
0.0
 30
0.0
 70
     1
  0
VERTEX
  5
C8AFF
  8
RAHMEN
 10
205.0
 20
5.0
 30
0.0
  0
VERTEX
  5
C8B00
  8
RAHMEN
 10
205.0
 20
292.0
 30
0.0
  0
VERTEX
  5
C8B01
  8
RAHMEN
 10
5.0
 20
292.0
 30
0.0
  0
VERTEX
  5
C8B02
  8
RAHMEN
 10
5.0
 20
5.0
 30
0.0
  0
SEQEND
  5
C8B03
  8
RAHMEN
  0
POLYLINE
  5
C7040
  8
RAHMEN
 62
     7
 66
     1
 10
0.0
 20
0.0
 30
0.0
  0
VERTEX
  5
C8B04
  8
RAHMEN
 62
     7
 10
210.0
 20
0.0
 30
0.0
  0
VERTEX
  5
C8B05
  8
RAHMEN
 62
     7
 10
210.0
 20
297.0
 30
0.0
  0
VERTEX
  5
C8B06
  8
RAHMEN
 62
     7
 10
0.0
 20
297.0
 30
0.0
  0
VERTEX
  5
C8B07
  8
RAHMEN
 62
     7
 10
0.0
 20
0.0
 30
0.0
  0
VERTEX
  5
C8B08
  8
RAHMEN
 62
     7
 10
210.0
 20
0.0
 30
0.0
  0
SEQEND
  5
C8B09
  8
RAHMEN
 62
     7
  0
INSERT
  5
C8932
  8
BEM1
 66
     1
  2
ZKOPF-REAN
 10
204.99999963002639
 20
5.000000311761255
 30
0.0
  0
ATTRIB
  5
C8933
  8
0
 62
     4
 10
189.83333296335971
 20
42.000000311761248
 30
0.0
 40
2.5
  1
Battlogg
  7
SCRIPTS
 72
     1
 11
196.49999963002639
 21
42.000000311761248
 31
0.0
  2
NAME
 70
     0
  0
ATTRIB
  5
C8934
  8
0
 62
     4
 10
175.83333296335971
 20
42.000000311761248
 30
0.0
 40
2.5
  1
12.10.09
 41
0.7
 51
15.0
 72
     1
 11
180.49999963002639
 21
42.000000311761248
 31
0.0
  2
DATE
 70
     0
  0
ATTRIB
  5
C8935
  8
0
 62
     4
 10
124.49999963002639
 20
41.000000311761248
 30
0.0
 40
2.5
  1

 41
0.7
 51
15.0
 72
     1
 11
124.49999963002639
 21
41.000000311761248
 31
0.0
  2
WERKSTOFF
 70
     0
  0
ATTRIB
  5
C8936
  8
0
 62
     2
 10
98.124999630026437
 20
17.500000311761251
 30
0.0
 40
5.0
  1
NYS 2202P
 41
0.7
 51
15.0
 72
     1
 11
112.99999963002639
 21
17.500000311761251
 31
0.0
  2
BENENNUNG
 70
     0
  0
ATTRIB
  5
C8937
  8
0
 62
     3
 10
97.584543028147792
 20
26.08219176228819
 30
0.0
 40
3.5
  1
1/4" Phone Jacks
 41
0.7
 51
15.0
 72
     1
 11
115.95954302814781
 21
26.08219176228819
 31
0.0
  2
TEIL
 70
     0
  0
ATTRIB
  5
C8938
  8
0
 62
     3
 10
169.3414472141167
 20
6.9765413282990494
 30
0.0
 40
3.5
  1
3102 ST 22 110
 41
0.7
 51
15.0
 72
     1
 11
184.44978054744999
 21
6.9765413282990494
 31
0.0
  2
NUMMER
 70
     0
  0
ATTRIB
  5
C8939
  8
0
 62
     2
 10
142.10066132588361
 20
39.656056544695787
 30
0.0
 40
5.0
  1
1:1
 41
0.7
 51
15.0
 72
     1
 11
144.43399465921701
 21
39.656056544695787
 31
0.0
  2
MASS
 70
     0
  0
ATTRIB
  5
C893A
  8
0
 62
     3
 10
144.51929868404639
 20
33.210450850936553
 30
0.0
 40
3.5
  1

 41
0.7
 51
15.0
 72
     1
 11
144.51929868404639
 21
33.210450850936553
 31
0.0
  2
MASS2
 70
     0
  0
ATTRIB
  5
C893B
  8
0
 62
     4
 10
123.99999963002639
 20
34.000000311761262
 30
0.0
 40
2.5
  1

 41
0.7
 51
15.0
 72
     1
 11
123.99999963002639
 21
34.000000311761262
 31
0.0
  2
TEIL
 70
     0
  0
ATTRIB
  5
C893C
  8
0
 62
     3
 10
97.288547689464565
 20
64.004319059190692
 30
0.0
 40
3.5
  1

 41
0.7
 51
15.0
  2
TOL
 70
     0
  0
ATTRIB
  5
C893D
  8
0
 62
     3
 10
97.288547689464565
 20
59.004319059190692
 30
0.0
 40
3.5
  1

 41
0.7
 51
15.0
  2
RADIEN
 70
     0
  0
ATTRIB
  5
C893E
  8
0
 62
     3
 10
97.288547689464565
 20
54.004319059190692
 30
0.0
 40
3.5
  1

 41
0.7
 51
15.0
  2
FACETTE
 70
     0
  0
ATTRIB
  5
C893F
  8
0
 62
     4
 10
7.8137323716437663
 20
12.00000031176125
 30
0.0
 40
2.5
  1

 41
0.7
 51
15.0
  2
INDEX1
 70
     0
  0
ATTRIB
  5
C8940
  8
0
 62
     4
 10
14.65125702647611
 20
12.00000031176125
 30
0.0
 40
2.5
  1

 41
0.7
 51
15.0
  2
A1
 70
     0
  0
ATTRIB
  5
C8941
  8
0
 62
     4
 10
47.65125702647611
 20
12.00000031176125
 30
0.0
 40
2.5
  1

 41
0.7
 51
15.0
  2
DATUM1
 70
     0
  0
ATTRIB
  5
C8942
  8
0
 62
     4
 10
60.535009491959393
 20
12.00000031176125
 30
0.0
 40
2.5
  1

 41
0.7
 51
15.0
  2
NAME1
 70
     0
  0
ATTRIB
  5
C8943
  8
0
 62
     4
 10
7.8137323716437663
 20
17.000000311761251
 30
0.0
 40
2.5
  1

 41
0.7
 51
15.0
  2
INDEX2
 70
     0
  0
ATTRIB
  5
C8944
  8
0
 62
     4
 10
14.65125702647611
 20
17.000000311761251
 30
0.0
 40
2.5
  1

 41
0.7
 51
15.0
  2
A2
 70
     0
  0
ATTRIB
  5
C8945
  8
0
 62
     4
 10
47.65125702647611
 20
17.000000311761251
 30
0.0
 40
2.5
  1

 41
0.7
 51
15.0
  2
DATUM2
 70
     0
  0
ATTRIB
  5
C8946
  8
0
 62
     4
 10
60.535009491959393
 20
17.000000311761251
 30
0.0
 40
2.5
  1

 41
0.7
 51
15.0
  2
NAME2
 70
     0
  0
ATTRIB
  5
C8947
  8
0
 62
     4
 10
7.8137323716437663
 20
22.000000311761251
 30
0.0
 40
2.5
  1

 41
0.7
 51
15.0
  2
INDEX3
 70
     0
  0
ATTRIB
  5
C8948
  8
0
 62
     4
 10
14.65125702647611
 20
22.000000311761251
 30
0.0
 40
2.5
  1

 41
0.7
 51
15.0
  2
A3
 70
     0
  0
ATTRIB
  5
C8949
  8
0
 62
     4
 10
47.65125702647611
 20
22.000000311761251
 30
0.0
 40
2.5
  1

 41
0.7
 51
15.0
  2
DATUM3
 70
     0
  0
ATTRIB
  5
C894A
  8
0
 62
     4
 10
60.535009491959393
 20
22.000000311761251
 30
0.0
 40
2.5
  1

 41
0.7
 51
15.0
  2
NAME3
 70
     0
  0
ATTRIB
  5
C894B
  8
0
 62
     4
 10
7.8137323716437663
 20
27.000000311761259
 30
0.0
 40
2.5
  1

 41
0.7
 51
15.0
  2
INDEX4
 70
     0
  0
ATTRIB
  5
C894C
  8
0
 62
     4
 10
14.65125702647611
 20
27.000000311761259
 30
0.0
 40
2.5
  1

 41
0.7
 51
15.0
  2
A4
 70
     0
  0
ATTRIB
  5
C894D
  8
0
 62
     4
 10
47.65125702647611
 20
27.000000311761259
 30
0.0
 40
2.5
  1

 41
0.7
 51
15.0
  2
DATUM4
 70
     0
  0
ATTRIB
  5
C894E
  8
0
 62
     4
 10
60.535009491959393
 20
27.000000311761259
 30
0.0
 40
2.5
  1

 41
0.7
 51
15.0
  2
NAME4
 70
     0
  0
ATTRIB
  5
C894F
  8
0
 62
     4
 10
7.8137323716437663
 20
32.000000311761262
 30
0.0
 40
2.5
  1

 41
0.7
 51
15.0
  2
INDEX5
 70
     0
  0
ATTRIB
  5
C8950
  8
0
 62
     4
 10
14.65125702647611
 20
32.000000311761262
 30
0.0
 40
2.5
  1

 41
0.7
 51
15.0
  2
A5
 70
     0
  0
ATTRIB
  5
C8951
  8
0
 62
     4
 10
47.65125702647611
 20
32.000000311761262
 30
0.0
 40
2.5
  1

 41
0.7
 51
15.0
  2
DATUM5
 70
     0
  0
ATTRIB
  5
C8952
  8
0
 62
     4
 10
60.535009491959393
 20
32.000000311761262
 30
0.0
 40
2.5
  1

 41
0.7
 51
15.0
  2
NAME5
 70
     0
  0
ATTRIB
  5
C8953
  8
0
 62
     4
 10
7.8137323716437663
 20
37.000000311761262
 30
0.0
 40
2.5
  1

 41
0.7
 51
15.0
  2
INDEX6
 70
     0
  0
ATTRIB
  5
C8954
  8
0
 62
     4
 10
14.65125702647611
 20
37.000000311761262
 30
0.0
 40
2.5
  1

 41
0.7
 51
15.0
  2
A6
 70
     0
  0
ATTRIB
  5
C8955
  8
0
 62
     4
 10
47.65125702647611
 20
37.000000311761262
 30
0.0
 40
2.5
  1

 41
0.7
 51
15.0
  2
DATUM6
 70
     0
  0
ATTRIB
  5
C8956
  8
0
 62
     4
 10
60.535009491959393
 20
37.000000311761262
 30
0.0
 40
2.5
  1

 41
0.7
 51
15.0
  2
NAME6
 70
     0
  0
ATTRIB
  5
C8957
  8
0
 62
     4
 10
7.8137323716437663
 20
42.000000311761248
 30
0.0
 40
2.5
  1

 41
0.7
 51
15.0
  2
INDEX7
 70
     0
  0
ATTRIB
  5
C8958
  8
0
 62
     4
 10
14.65125702647611
 20
42.000000311761248
 30
0.0
 40
2.5
  1

 41
0.7
 51
15.0
  2
A7
 70
     0
  0
ATTRIB
  5
C8959
  8
0
 62
     4
 10
47.65125702647611
 20
42.000000311761248
 30
0.0
 40
2.5
  1

 41
0.7
 51
15.0
  2
DATUM7
 70
     0
  0
ATTRIB
  5
C895A
  8
0
 62
     4
 10
60.535009491959393
 20
42.000000311761248
 30
0.0
 40
2.5
  1

 41
0.7
 51
15.0
  2
NAME7
 70
     0
  0
ATTRIB
  5
C895B
  8
0
 62
     4
 10
7.8137323716437663
 20
47.000000311761248
 30
0.0
 40
2.5
  1

 41
0.7
 51
15.0
  2
INDEX8
 70
     0
  0
ATTRIB
  5
C895C
  8
0
 62
     4
 10
14.65125702647611
 20
47.000000311761248
 30
0.0
 40
2.5
  1

 41
0.7
 51
15.0
  2
A8
 70
     0
  0
ATTRIB
  5
C895D
  8
0
 62
     4
 10
47.65125702647611
 20
47.000000311761248
 30
0.0
 40
2.5
  1

 41
0.7
 51
15.0
  2
DATUM8
 70
     0
  0
ATTRIB
  5
C895E
  8
0
 62
     4
 10
60.535009491959393
 20
47.000000311761248
 30
0.0
 40
2.5
  1

 41
0.7
 51
15.0
  2
NAME8
 70
     0
  0
SEQEND
  5
C895F
  8
BEM1
  0
LINE
  5
C8A3E
  8
MITTE
 10
138.4531803402933
 20
188.1402880540098
 30
0.0
 11
68.078509074134445
 21
188.1402880540098
 31
0.0
  0
LINE
  5
C8A3F
  8
05
 10
71.904579024921077
 20
194.54620501758569
 30
0.0
 11
135.8615078719692
 21
194.54620501758569
 31
0.0
  0
LINE
  5
C8A40
  8
05
 10
135.86150787196991
 20
181.73437109043411
 30
0.0
 11
71.904579024922441
 21
181.73437109043411
 31
0.0
  0
LINE
  5
C8A41
  8
05
 10
137.0615078719693
 20
193.3462050175857
 30
0.0
 11
137.06150787197001
 21
182.93437109043421
 31
0.0
  0
ARC
  5
C8A42
  8
05
 10
135.86150787196991
 20
182.93437109043421
 30
0.0
 40
1.1999999999999991
 50
270.0
 51
0.0
  0
ARC
  5
C8A43
  8
05
 10
135.8615078719692
 20
193.3462050175857
 30
0.0
 40
1.1999999999999991
 50
0.0
 51
90.0
  0
INSERT
  5
C8A44
  8
010
 62
     5
  2
*X10
 10
-24.709619761264548
 20
-39.13981878526414
 30
0.0
 41
0.6778748109603612
 42
0.6778748109603612
 43
0.6778748109603893
1001
ACAD
1000
HATCH
1002
{
1070
    16
1000
ANSI37,I
1040
12.0
1040
0.0
1002
}
  0
LINE
  5
C8A45
  8
010
 10
127.67618632845959
 20
194.54620501758569
 30
0.0
 11
127.67618632845959
 21
181.73437109043411
 31
0.0
  0
LINE
  5
C8A46
  8
010
 10
123.1005313544774
 20
194.54620501758569
 30
0.0
 11
123.1005313544774
 21
181.73437109043411
 31
0.0
  0
LINE
  5
C8A47
  8
05
 10
70.361507871969934
 20
192.71594302799241
 30
0.0
 11
70.361507871969934
 21
183.56463308002739
 31
0.0
  0
LINE
  5
C8A48
  8
010
 10
70.361507871969934
 20
185.20947576937519
 30
0.0
 11
71.378320088410874
 21
183.71740804814459
 31
0.0
  0
LINE
  5
C8A49
  8
035
 10
71.378320088410874
 20
193.73275524443341
 30
0.0
 11
71.378320088410874
 21
182.54782086358671
 31
0.0
  0
LINE
  5
C8A4A
  8
05
 10
71.701216581634071
 20
181.93773353372251
 30
0.0
 11
71.701216581634071
 21
194.34284257429761
 31
0.0
  0
LINE
  5
C8A4B
  8
010
 10
70.361507871969934
 20
183.98786573956829
 30
0.0
 11
70.785137277531248
 21
183.1410036744652
 31
0.0
  0
LINE
  5
C8A4C
  8
05
 10
71.378320088410874
 20
182.54782086358671
 30
0.0
 11
70.361507871969934
 21
183.56463308002739
 31
0.0
  0
LINE
  5
C8A4D
  8
05
 10
71.378320088410874
 20
182.54782086358671
 30
0.0
 11
71.701216581634071
 21
182.54782086358671
 31
0.0
  0
LINE
  5
C8A4E
  8
05
 10
71.904579024922441
 20
181.73437109043411
 30
0.0
 11
71.701216581634071
 21
181.93773353372251
 31
0.0
  0
LINE
  5
C8A4F
  8
010
 10
70.732453179974073
 20
193.086888335997
 30
0.0
 11
71.378320088410874
 21
193.1965124878455
 31
0.0
  0
LINE
  5
C8A50
  8
010
 10
70.361507871969934
 20
189.79059880800361
 30
0.0
 11
71.378320088410874
 21
189.49313464559219
 31
0.0
  0
LINE
  5
C8A51
  8
010
 10
70.361507871969934
 20
188.63288791503359
 30
0.0
 11
71.378320088410874
 21
188.1943319981909
 31
0.0
  0
LINE
  5
C8A52
  8
010
 10
70.361507871969934
 20
187.43173235606321
 30
0.0
 11
71.378320088410874
 21
186.60634381218699
 31
0.0
  0
LINE
  5
C8A53
  8
010
 10
70.361507871969934
 20
186.42205019427851
 30
0.0
 11
71.378320088410874
 21
185.42544844524821
 31
0.0
  0
LINE
  5
C8A54
  8
010
 10
70.361507871969934
 20
190.7812153158664
 30
0.0
 11
71.378320088410874
 21
190.68266137775129
 31
0.0
  0
LINE
  5
C8A55
  8
05
 10
71.378320088410874
 20
193.73275524443341
 30
0.0
 11
70.361507871969934
 21
192.71594302799241
 31
0.0
  0
LINE
  5
C8A56
  8
010
 10
70.361507871969934
 20
192.44511429101689
 30
0.0
 11
71.378320088410874
 21
192.58912949680359
 31
0.0
  0
LINE
  5
C8A57
  8
010
 10
70.361507871969934
 20
191.72721952266409
 30
0.0
 11
71.378320088410874
 21
191.6753655815958
 31
0.0
  0
LINE
  5
C8A58
  8
05
 10
70.361507871969934
 20
184.4576658165509
 30
0.0
 11
70.061507871969752
 21
184.4576658165509
 31
0.0
  0
LINE
  5
C8A59
  8
05
 10
70.06150787196998
 20
191.8229102914689
 30
0.0
 11
70.361507871969934
 21
191.8229102914689
 31
0.0
  0
LINE
  5
C8A5A
  8
05
 10
71.378320088410874
 20
193.73275524443341
 30
0.0
 11
71.701216581634071
 21
193.73275524443341
 31
0.0
  0
LINE
  5
C8A5B
  8
05
 10
70.061507871969752
 20
191.8229102914689
 30
0.0
 11
70.061507871969752
 21
184.4576658165509
 31
0.0
  0
LINE
  5
C8A5C
  8
05
 10
71.701216581634071
 20
194.34284257429761
 30
0.0
 11
71.904579024921077
 21
194.54620501758569
 31
0.0
  0
LINE
  5
C8A5E
  8
BEM1
 10
70.061507871969525
 20
182.6682718510252
 30
0.0
 11
70.061507871969525
 21
169.1149032993759
 31
0.0
  0
LINE
  5
C8A5F
  8
BEM1
 10
70.061507871969525
 20
169.72578663491331
 30
0.0
 11
137.0615078719697
 21
169.7257866349124
 31
0.0
  0
SOLID
  5
C8A60
  8
BEM1
 10
72.468493339751376
 20
170.12695087954361
 30
0.0
 11
72.468493339751376
 21
169.324622390283
 31
0.0
 12
70.061507871969525
 22
169.72578663491331
 32
0.0
 13
70.061507871969525
 23
169.72578663491331
 33
0.0
  0
TEXT
  5
C8A61
  8
BEM1
 62
     3
 10
92.894047728081105
 20
170.79400148403531
 30
0.0
 40
3.0
  1
66.7
 41
0.75
 51
15.0
 72
     1
 11
96.269047728081105
 21
172.29400148403531
 31
0.0
 73
     2
  0
LINE
  5
C8A62
  8
BEM1
 10
137.06150787196981
 20
180.97144139847171
 30
0.0
 11
137.0615078719697
 21
169.11490329937499
 31
0.0
  0
TEXT
  5
C8A63
  8
BEM1
 62
     4
 10
102.41936273175961
 20
170.8051867264021
 30
0.0
 40
2.5
  1
[2.626"]
 41
0.7
 51
15.0
 72
     1
 11
107.66936273175961
 21
172.0551867264021
 31
0.0
 73
     2
  0
SOLID
  5
C8A64
  8
BEM1
 10
134.6545224041879
 20
170.1269508795427
 30
0.0
 11
134.6545224041879
 21
169.32462239028209
 31
0.0
 12
137.0615078719697
 22
169.7257866349124
 32
0.0
 13
137.0615078719697
 23
169.7257866349124
 33
0.0
  0
SOLID
  5
C8A65
  8
BEM1
 10
146.12681450041589
 20
192.13921954980401
 30
0.0
 11
145.3244860111553
 21
192.13921954980401
 31
0.0
 12
145.72565025578569
 22
194.54620501758569
 32
0.0
 13
145.72565025578569
 23
194.54620501758569
 33
0.0
  0
LINE
  5
C8A66
  8
BEM1
 10
145.72565025578569
 20
192.6402880540098
 30
0.0
 11
145.72565025578569
 21
183.64028805400969
 31
0.0
  0
INSERT
  5
C8A67
  8
05
  2
*U17
 10
0.0
 20
0.0
 30
0.0
  0
SOLID
  5
C8A68
  8
BEM1
 10
146.1268145004158
 20
184.1413565582163
 30
0.0
 11
145.3244860111551
 21
184.1413565582163
 31
0.0
 12
145.72565025578569
 22
181.73437109043459
 32
0.0
 13
145.72565025578569
 23
181.73437109043459
 33
0.0
  0
INSERT
  5
C8A69
  8
05
  2
*U18
 10
0.0
 20
0.0
 30
0.0
  0
LINE
  5
C8A6A
  8
BEM1
 10
137.54365905111229
 20
194.54620501758569
 30
0.0
 11
146.32565025578569
 21
194.54620501758569
 31
0.0
  0
LINE
  5
C8A6B
  8
BEM1
 10
138.00384853968529
 20
181.73437109043411
 30
0.0
 11
146.32565025578569
 21
181.73437109043419
 31
0.0
  0
ENDSEC
  0
EOF
