  0
SECTION
  2
HEADER
  9
$ACADVER
  1
AC1009
  9
$INSBASE
 10
0.0
 20
0.0
 30
0.0
  9
$EXTMIN
 10
0.0
 20
0.0
 30
0.0
  9
$EXTMAX
 10
210.0
 20
297.0
 30
0.0
  9
$LIMMIN
 10
0.0
 20
0.0
  9
$LIMMAX
 10
410.0
 20
287.0
  9
$ORTHOMODE
 70
     1
  9
$REGENMODE
 70
     1
  9
$FILLMODE
 70
     1
  9
$QTEXTMODE
 70
     0
  9
$MIRRTEXT
 70
     1
  9
$DRAGMODE
 70
     2
  9
$LTSCALE
 40
5.0
  9
$OSMODE
 70
    37
  9
$ATTMODE
 70
     1
  9
$TEXTSIZE
 40
3.5
  9
$TRACEWID
 40
26.0
  9
$TEXTSTYLE
  7
ARIAL
  9
$CLAYER
  8
05
  9
$CELTYPE
  6
BYLAYER
  9
$CECOLOR
 62
   256
  9
$DIMSCALE
 40
1.0
  9
$DIMASZ
 40
3.5
  9
$DIMEXO
 40
1.0
  9
$DIMDLI
 40
8.0
  9
$DIMRND
 40
0.0
  9
$DIMDLE
 40
0.0
  9
$DIMEXE
 40
1.8
  9
$DIMTP
 40
0.0
  9
$DIMTM
 40
0.0
  9
$DIMTXT
 40
3.5
  9
$DIMCEN
 40
0.0
  9
$DIMTSZ
 40
0.0
  9
$DIMTOL
 70
     0
  9
$DIMLIM
 70
     0
  9
$DIMTIH
 70
     0
  9
$DIMTOH
 70
     0
  9
$DIMSE1
 70
     0
  9
$DIMSE2
 70
     0
  9
$DIMTAD
 70
     1
  9
$DIMZIN
 70
     0
  9
$DIMBLK
  1

  9
$DIMASO
 70
     0
  9
$DIMSHO
 70
     0
  9
$DIMPOST
  1

  9
$DIMAPOST
  1
"
  9
$DIMALT
 70
     0
  9
$DIMALTD
 70
     3
  9
$DIMALTF
 40
0.039370079
  9
$DIMLFAC
 40
0.5
  9
$DIMTOFL
 70
     0
  9
$DIMTVP
 40
0.0
  9
$DIMTIX
 70
     1
  9
$DIMSOXD
 70
     0
  9
$DIMSAH
 70
     0
  9
$DIMBLK1
  1

  9
$DIMBLK2
  1

  9
$DIMSTYLE
  2
STANDARD
  9
$DIMCLRD
 70
   256
  9
$DIMCLRE
 70
   256
  9
$DIMCLRT
 70
     3
  9
$DIMTFAC
 40
1.0
  9
$DIMGAP
 40
0.15
  9
$LUNITS
 70
     2
  9
$LUPREC
 70
     2
  9
$SKETCHINC
 40
1.0
  9
$FILLETRAD
 40
0.7
  9
$AUNITS
 70
     0
  9
$AUPREC
 70
     2
  9
$MENU
  1
acad
  9
$ELEVATION
 40
0.0
  9
$PELEVATION
 40
0.0
  9
$THICKNESS
 40
0.0
  9
$LIMCHECK
 70
     0
  9
$BLIPMODE
 70
     0
  9
$CHAMFERA
 40
0.2
  9
$CHAMFERB
 40
0.2
  9
$SKPOLY
 70
     0
  9
$TDCREATE
 40
2450034.610806366
  9
$TDUPDATE
 40
2454266.6783529641
  9
$TDINDWG
 40
0.0178973727
  9
$TDUSRTIMER
 40
0.0178973727
  9
$USRTIMER
 70
     1
  9
$ANGBASE
 50
0.0
  9
$ANGDIR
 70
     0
  9
$PDMODE
 70
     0
  9
$PDSIZE
 40
0.0
  9
$PLINEWID
 40
0.0
  9
$COORDS
 70
     1
  9
$SPLFRAME
 70
     0
  9
$SPLINETYPE
 70
     6
  9
$SPLINESEGS
 70
     8
  9
$ATTDIA
 70
     0
  9
$ATTREQ
 70
     1
  9
$HANDLING
 70
     1
  9
$HANDSEED
  5
1063B
  9
$SURFTAB1
 70
     6
  9
$SURFTAB2
 70
     6
  9
$SURFTYPE
 70
     6
  9
$SURFU
 70
     6
  9
$SURFV
 70
     6
  9
$UCSNAME
  2

  9
$UCSORG
 10
0.0
 20
0.0
 30
0.0
  9
$UCSXDIR
 10
1.0
 20
0.0
 30
0.0
  9
$UCSYDIR
 10
0.0
 20
1.0
 30
0.0
  9
$PUCSNAME
  2

  9
$PUCSORG
 10
0.0
 20
0.0
 30
0.0
  9
$PUCSXDIR
 10
1.0
 20
0.0
 30
0.0
  9
$PUCSYDIR
 10
0.0
 20
1.0
 30
0.0
  9
$USERI1
 70
     0
  9
$USERI2
 70
     0
  9
$USERI3
 70
     0
  9
$USERI4
 70
     0
  9
$USERI5
 70
     0
  9
$USERR1
 40
0.0
  9
$USERR2
 40
0.0
  9
$USERR3
 40
0.0
  9
$USERR4
 40
0.0
  9
$USERR5
 40
0.0
  9
$WORLDVIEW
 70
     1
  9
$SHADEDGE
 70
     3
  9
$SHADEDIF
 70
    70
  9
$TILEMODE
 70
     1
  9
$MAXACTVP
 70
    16
  9
$PLIMCHECK
 70
     0
  9
$PEXTMIN
 10
1.0000000000000000E+020
 20
1.0000000000000000E+020
 30
1.0000000000000000E+020
  9
$PEXTMAX
 10
-1.0000000000000000E+020
 20
-1.0000000000000000E+020
 30
-1.0000000000000000E+020
  9
$PLIMMIN
 10
0.0
 20
0.0
  9
$PLIMMAX
 10
12.0
 20
9.0
  9
$UNITMODE
 70
     0
  9
$VISRETAIN
 70
     0
  9
$PLINEGEN
 70
     0
  9
$PSLTSCALE
 70
     0
  0
ENDSEC
  0
SECTION
  2
TABLES
  0
TABLE
  2
VPORT
 70
     2
  0
VPORT
  2
*ACTIVE
 70
     0
 10
0.0
 20
0.0
 11
1.0
 21
1.0
 12
142.08332775476359
 22
148.50000069150701
 13
0.0
 23
0.0
 14
1.0
 24
1.0
 15
2.0
 25
2.0
 16
0.0
 26
0.0
 36
1.0
 17
0.0
 27
0.0
 37
0.0
 40
298.97655843001979
 41
1.351184346035015
 42
50.0
 43
0.0
 44
0.0
 50
0.0
 51
0.0
 71
     0
 72
   500
 73
     1
 74
     0
 75
     0
 76
     0
 77
     0
 78
     0
  0
ENDTAB
  0
TABLE
  2
LTYPE
 70
     4
  0
LTYPE
  2
AUSGEZOGEN
 70
     0
  3
Ausgezogene Linie
 72
    65
 73
     0
 40
0.0
  0
LTYPE
  2
CENTER
 70
     0
  3
____ _ ____ _ ____ _ ____ _ ____ _ ____ _ ____
 72
    65
 73
     4
 40
2.0
 49
1.25
 49
-0.25
 49
0.25
 49
-0.25
  0
LTYPE
  2
PUNKT
 70
     0
  3
. . . . . . . . . . . . . . . . . . . . . . . .
 72
    65
 73
     2
 40
0.25
 49
0.0
 49
-0.25
  0
LTYPE
  2
CONTINUOUS
 70
     0
  3
Solid line
 72
    65
 73
     0
 40
0.0
  0
ENDTAB
  0
TABLE
  2
LAYER
 70
     8
  0
LAYER
  2
0
 70
     0
 62
     6
  6
AUSGEZOGEN
  0
LAYER
  2
05
 70
     0
 62
     2
  6
AUSGEZOGEN
  0
LAYER
  2
BEM1
 70
     0
 62
     4
  6
AUSGEZOGEN
  0
LAYER
  2
MITTE
 70
     0
 62
     4
  6
CENTER
  0
LAYER
  2
035
 70
     0
 62
     3
  6
AUSGEZOGEN
  0
LAYER
  2
025
 70
     0
 62
     4
  6
AUSGEZOGEN
  0
LAYER
  2
ASHADE
 70
     0
 62
     7
  6
AUSGEZOGEN
  0
LAYER
  2
RAHMEN
 70
     0
 62
     2
  6
AUSGEZOGEN
  0
ENDTAB
  0
TABLE
  2
STYLE
 70
     4
  0
STYLE
  2
STANDARD
 70
     0
 40
0.0
 41
0.7
 50
15.0
 71
     0
 42
3.5
  3
txt
  4

  0
STYLE
  2
SCRIPTS
 70
     0
 40
0.0
 41
1.0
 50
0.0
 71
     0
 42
5.0
  3
scripts
  4

  0
STYLE
  2
HELV
 70
     0
 40
0.0
 41
0.8
 50
10.0
 71
     0
 42
2.0
  3
HELV.SHX
  4

  0
STYLE
  2
ARIAL
 70
     0
 40
0.0
 41
1.0
 50
0.0
 71
     0
 42
3.5
  3
txt
  4

  0
ENDTAB
  0
TABLE
  2
VIEW
 70
     1
  0
VIEW
  2
OLE1
 70
     0
 40
362.04337985430692
 10
262.08045297997688
 20
181.0216899271534
 41
524.16090595995388
 11
0.0
 21
0.0
 31
1.0
 12
0.0
 22
0.0
 32
0.0
 42
50.0
 43
0.0
 44
0.0
 50
0.0
 71
     0
  0
ENDTAB
  0
TABLE
  2
UCS
 70
     0
  0
ENDTAB
  0
TABLE
  2
APPID
 70
     2
  0
APPID
  2
ACAD
 70
     0
  0
APPID
  2
AVE_RENDER
 70
     0
  0
ENDTAB
  0
TABLE
  2
DIMSTYLE
 70
     2
  0
DIMSTYLE
  2
STANDARD
 70
     0
  3

  4

  5

  6

  7

 40
1.0
 41
0.18
 42
0.0625
 43
0.38
 44
0.18
 45
0.0
 46
0.0
 47
0.0
 48
0.0
140
0.18
141
0.09
142
0.0
143
25.399999999999999
144
1.0
145
0.0
146
1.0
147
0.09
 71
     0
 72
     0
 73
     1
 74
     1
 75
     0
 76
     0
 77
     0
 78
     0
170
     0
171
     2
172
     0
173
     0
174
     0
175
     0
176
     0
177
     0
178
     0
  0
DIMSTYLE
  2
NEUTRIK
 70
     0
  3

  4
"
  5

  6

  7

 40
1.0
 41
3.5
 42
1.0
 43
8.0
 44
1.1999999999999991
 45
0.0
 46
0.0
 47
0.0
 48
0.0
140
3.5
141
0.0
142
0.0
143
0.039370079
144
1.0
145
0.0
146
1.0
147
0.15
 71
     0
 72
     0
 73
     0
 74
     0
 75
     0
 76
     0
 77
     1
 78
     0
170
     0
171
     3
172
     0
173
     0
174
     1
175
     0
176
     4
177
     4
178
     3
  0
ENDTAB
  0
ENDSEC
  0
SECTION
  2
BLOCKS
  0
BLOCK
  8
0
  2
$MODEL_SPACE
 70
     0
 10
0.0
 20
0.0
 30
0.0
  3
$MODEL_SPACE
  1

  0
ENDBLK
  5
101A3
  8
0
  0
BLOCK
 67
     1
  8
0
  2
$PAPER_SPACE
 70
     0
 10
0.0
 20
0.0
 30
0.0
  3
$PAPER_SPACE
  1

  0
ENDBLK
  5
101A1
 67
     1
  8
0
  0
BLOCK
  8
0
  2
AVE_RENDER
 70
     0
 10
0.0
 20
0.0
 30
0.0
  3
AVE_RENDER
  1
AVE_RENDER
  0
ENDBLK
  5
2F
  8
0
  0
BLOCK
  8
0
  2
NT_1
 70
     0
 10
0.0
 20
0.0
 30
0.0
  3
NT_1
  1

  0
ENDBLK
  5
35
  8
0
  0
BLOCK
  8
0
  2
SCHRIFT2
 70
     0
 10
0.0
 20
0.0
 30
0.0
  3
SCHRIFT2
  1

  0
TEXT
  5
152F
  8
0
 62
     3
 10
0.0
 20
0.0
 30
0.0
 40
3.5
  1
Panel cut out (rear side)
 41
0.7
 51
15.0
  0
TEXT
  5
1530
  8
0
 62
     3
 10
0.0
 20
7.0
 30
0.0
 40
3.5
  1
Frontplattenausschnitt (Rückseite)
  7
HELV
  0
ENDBLK
  5
1531
  8
0
  0
BLOCK
  8
0
  2
SCHRIFT3
 70
     0
 10
0.0
 20
0.0
 30
0.0
  3
SCHRIFT3
  1

  0
TEXT
  5
1534
  8
0
 62
     3
 10
1.0
 20
-1.0
 30
0.0
 40
3.5
  1
PCB-Layout (component side)
 41
0.7
 51
15.0
  0
TEXT
  5
1535
  8
0
 62
     3
 10
1.0
 20
5.0
 30
0.0
 40
3.5
  1
Print-Bohrplan (Bestückungsseite)
  7
HELV
  0
ENDBLK
  5
1536
  8
0
  0
BLOCK
  8
0
  2
ZKOPFC
 70
     2
 10
0.0
 20
0.0
 30
0.0
  3
ZKOPFC
  1

  0
ATTDEF
  5
1EAB
  8
0
 62
     4
 10
-13.321428571428569
 20
37.0
 30
0.0
 40
2.5
  1
Dobler
  7
SCRIPTS
 72
     1
 11
-8.5
 21
37.0
 31
0.0
  3
Name des Konstrukteurs ?
  2
NAME
 70
     0
  0
POLYLINE
  5
1EAC
  8
0
 62
     2
 66
     1
 10
0.0
 20
0.0
 30
0.0
  0
VERTEX
  5
104E0
  8
0
 62
     2
 10
-51.0
 20
0.0
 30
0.0
  0
VERTEX
  5
104E1
  8
0
 62
     2
 10
-51.0
 20
46.0
 30
0.0
  0
SEQEND
  5
104E2
  8
0
 62
     2
  0
POLYLINE
  5
1EB0
  8
0
 62
     2
 66
     1
 10
0.0
 20
0.0
 30
0.0
  0
VERTEX
  5
104E3
  8
0
 62
     2
 10
-17.0
 20
9.0
 30
0.0
  0
VERTEX
  5
104E4
  8
0
 62
     2
 10
-17.0
 20
46.0
 30
0.0
  0
SEQEND
  5
104E5
  8
0
 62
     2
  0
POLYLINE
  5
1EB4
  8
0
 62
     2
 66
     1
 10
0.0
 20
0.0
 30
0.0
  0
VERTEX
  5
104E6
  8
0
 62
     2
 10
-32.0
 20
26.0
 30
0.0
  0
VERTEX
  5
104E7
  8
0
 62
     2
 10
-32.0
 20
46.0
 30
0.0
  0
SEQEND
  5
104E8
  8
0
 62
     2
  0
POLYLINE
  5
1EB8
  8
0
 62
     2
 66
     1
 10
0.0
 20
0.0
 30
0.0
  0
VERTEX
  5
104E9
  8
0
 62
     2
 10
-133.0
 20
41.0
 30
0.0
  0
VERTEX
  5
104EA
  8
0
 62
     2
 10
-92.0
 20
41.0
 30
0.0
  0
SEQEND
  5
104EB
  8
0
 62
     2
  0
POLYLINE
  5
1EBC
  8
0
 62
     2
 66
     1
 10
0.0
 20
0.0
 30
0.0
  0
VERTEX
  5
104EC
  8
0
 62
     2
 10
-145.0
 20
0.0
 30
0.0
  0
VERTEX
  5
104ED
  8
0
 62
     2
 10
-145.0
 20
46.0
 30
0.0
  0
SEQEND
  5
104EE
  8
0
 62
     2
  0
POLYLINE
  5
1EC0
  8
0
 62
     2
 66
     1
 10
0.0
 20
0.0
 30
0.0
  0
VERTEX
  5
104EF
  8
0
 62
     2
 10
-158.0
 20
0.0
 30
0.0
  0
VERTEX
  5
104F0
  8
0
 62
     2
 10
-158.0
 20
46.0
 30
0.0
  0
SEQEND
  5
104F1
  8
0
 62
     2
  0
LINE
  5
1EC4
  8
0
 62
     2
 10
-200.0
 20
6.0
 30
0.0
 11
-133.0
 21
6.0
 31
0.0
  0
POLYLINE
  5
1EC5
  8
0
 62
     4
 66
     1
 10
0.0
 20
0.0
 30
0.0
  0
VERTEX
  5
104F2
  8
0
 62
     4
 10
-200.0
 20
11.0
 30
0.0
  0
VERTEX
  5
104F3
  8
0
 62
     4
 10
-133.0
 20
11.0
 30
0.0
  0
SEQEND
  5
104F4
  8
0
 62
     4
  0
POLYLINE
  5
1EC9
  8
0
 62
     4
 66
     1
 10
0.0
 20
0.0
 30
0.0
  0
VERTEX
  5
104F5
  8
0
 62
     4
 10
-200.0
 20
16.0
 30
0.0
  0
VERTEX
  5
104F6
  8
0
 62
     4
 10
-133.0
 20
16.0
 30
0.0
  0
SEQEND
  5
104F7
  8
0
 62
     4
  0
POLYLINE
  5
1ECD
  8
0
 62
     4
 66
     1
 10
0.0
 20
0.0
 30
0.0
  0
VERTEX
  5
104F8
  8
0
 62
     4
 10
-200.0
 20
21.0
 30
0.0
  0
VERTEX
  5
104F9
  8
0
 62
     4
 10
-133.0
 20
21.0
 30
0.0
  0
SEQEND
  5
104FA
  8
0
 62
     4
  0
POLYLINE
  5
1ED1
  8
0
 62
     4
 66
     1
 10
0.0
 20
0.0
 30
0.0
  0
VERTEX
  5
104FB
  8
0
 62
     4
 10
-200.0
 20
26.0
 30
0.0
  0
VERTEX
  5
104FC
  8
0
 62
     4
 10
-133.0
 20
26.0
 30
0.0
  0
SEQEND
  5
104FD
  8
0
 62
     4
  0
POLYLINE
  5
1ED5
  8
0
 62
     4
 66
     1
 10
0.0
 20
0.0
 30
0.0
  0
VERTEX
  5
104FE
  8
0
 62
     4
 10
-200.0
 20
31.0
 30
0.0
  0
VERTEX
  5
104FF
  8
0
 62
     4
 10
-133.0
 20
31.0
 30
0.0
  0
SEQEND
  5
10500
  8
0
 62
     4
  0
POLYLINE
  5
1ED9
  8
0
 62
     4
 66
     1
 10
0.0
 20
0.0
 30
0.0
  0
VERTEX
  5
10501
  8
0
 62
     4
 10
-200.0
 20
36.0
 30
0.0
  0
VERTEX
  5
10502
  8
0
 62
     4
 10
-133.0
 20
36.0
 30
0.0
  0
SEQEND
  5
10503
  8
0
 62
     4
  0
POLYLINE
  5
1EDD
  8
0
 62
     4
 66
     1
 10
0.0
 20
0.0
 30
0.0
  0
VERTEX
  5
10504
  8
0
 62
     4
 10
-200.0
 20
41.0
 30
0.0
  0
VERTEX
  5
10505
  8
0
 62
     4
 10
-133.0
 20
41.0
 30
0.0
  0
SEQEND
  5
10506
  8
0
 62
     4
  0
TEXT
  5
1EE1
  8
0
 62
     4
 10
-50.0
 20
6.0
 30
0.0
 40
1.5
  1
Zeichn. Nr.
 51
15.0
  0
TEXT
  5
1EE2
  8
0
 62
     4
 10
-50.0
 20
23.0
 30
0.0
 40
1.5
  1
Ersetzt durch:         Blatt
 51
15.0
  0
TEXT
  5
1EE3
  8
0
 62
     4
 10
-50.0
 20
38.0
 30
0.0
 40
1.5
  1
Gezeichnet
 51
15.0
  0
TEXT
  5
1EE4
  8
0
 62
     4
 10
-50.0
 20
27.0
 30
0.0
 40
1.5
  1
Gesehen
 51
15.0
  0
TEXT
  5
1EE5
  8
0
 62
     4
 10
-31.0
 20
42.0
 30
0.0
 40
1.5
  1
Datum     Name
 51
15.0
  0
TEXT
  5
1EE6
  8
0
 62
     4
 10
-91.0
 20
42.0
 30
0.0
 40
1.5
  1
Werkstoff:      Massstab:
 51
15.0
  0
TEXT
  5
1EE7
  8
0
 62
     4
 10
-132.0
 20
23.0
 30
0.0
 40
1.5
  1
Benennung:
 51
15.0
  0
LINE
  5
1EE8
  8
0
 62
     2
 10
-133.0
 20
33.0
 30
0.0
 11
-92.0
 21
33.0
 31
0.0
  0
TEXT
  5
1EE9
  8
0
 62
     4
 10
-132.0
 20
39.0
 30
0.0
 40
1.5
  1
*)Lieferant darf ohne 
 51
15.0
  0
TEXT
  5
1EEA
  8
0
 62
     4
 10
-132.0
 20
36.5
 30
0.0
 40
1.5
  1
 Ruecksprache nicht 
 51
15.0
  0
TEXT
  5
1EEB
  8
0
 62
     4
 10
-132.0
 20
34.0
 30
0.0
 40
1.5
  1
 geaendert werden
 51
15.0
  0
TEXT
  5
1EEC
  8
0
 62
     4
 10
-132.0
 20
30.0
 30
0.0
 40
1.5
  1
Zeichnung urheberrechtlich
 51
15.0
  0
TEXT
  5
1EED
  8
0
 62
     4
 10
-132.0
 20
27.5
 30
0.0
 40
1.5
  1
geschuetzt (DIN 34) (C)
 51
15.0
  0
TEXT
  5
1EEE
  8
0
 62
     4
 10
-50.0
 20
32.0
 30
0.0
 40
1.5
  1
Geprueft
 51
15.0
  0
TEXT
  5
1EEF
  8
0
 62
     4
 10
-50.0
 20
15.0
 30
0.0
 40
1.5
  1
Ersatz fuer:           von  Blatt
 51
15.0
  0
TEXT
  5
1EF0
  8
0
 62
     4
 10
-197.0
 20
1.0
 30
0.0
 40
1.5
  1
Ind.  Aenderung             Datum    Name
 51
15.0
  0
ATTDEF
  5
1EF1
  8
0
 62
     4
 10
-28.875
 20
37.0
 30
0.0
 40
2.5
  1
01.10.91
 41
0.7
 51
15.0
 72
     1
 11
-24.5
 21
37.0
 31
0.0
  3
Datum der Zeichnung ?
  2
DATE
 70
     0
  0
ATTDEF
  5
1EF2
  8
0
 62
     4
 10
-80.5
 20
36.0
 30
0.0
 40
2.5
  1

 41
0.7
 51
15.0
 72
     1
 11
-80.5
 21
36.0
 31
0.0
  3
Aus welchem Werkstoff ?
  2
WERKSTOFF
 70
     0
  0
ATTDEF
  5
1EF3
  8
0
 62
     2
 10
-92.0
 20
12.5
 30
0.0
 40
5.0
  1

 41
0.7
 51
15.0
 72
     1
 11
-92.0
 21
12.5
 31
0.0
  3
Zeichnungsname ?
  2
BENENNUNG
 70
     0
  0
ATTDEF
  5
1EF4
  8
0
 62
     3
 10
-90.265456601878626
 20
21.082191450526931
 30
0.0
 40
3.5
  1
()
 41
0.7
 51
15.0
 72
     1
 11
-89.040456601878617
 21
21.082191450526931
 31
0.0
  3
Zu welchem Produkt ?
  2
TEIL
 70
     0
  0
ATTDEF
  5
1EF5
  8
0
 62
     3
 10
-20.550219082576412
 20
1.9765410165377939
 30
0.0
 40
3.5
  1

 41
0.7
 51
15.0
 72
     1
 11
-20.550219082576412
 21
1.9765410165377939
 31
0.0
  3
Zeichnungsnummer ?
  2
NUMMER
 70
     0
  0
ATTDEF
  5
1EF6
  8
0
 62
     2
 10
-63.482671637476102
 20
34.656056232934532
 30
0.0
 40
5.0
  1
5:1
 41
0.7
 51
15.0
 72
     1
 11
-60.566004970809438
 21
34.656056232934532
 31
0.0
  3
Hauptmassstab:
  2
MASS
 70
     0
  0
ATTDEF
  5
1EF7
  8
0
 62
     3
 10
-60.480700945980033
 20
28.210450539175302
 30
0.0
 40
3.5
  1

 41
0.7
 51
15.0
 72
     1
 11
-60.480700945980033
 21
28.210450539175302
 31
0.0
  3
Nebenmassstab:
  2
MASS2
 70
     0
  0
ATTDEF
  5
1EF8
  8
0
 62
     4
 10
-81.0
 20
29.0
 30
0.0
 40
2.5
  1

 41
0.7
 51
15.0
 72
     1
 11
-81.0
 21
29.0
 31
0.0
  3
Werkstoffzusatz:
  2
TEIL
 70
     0
  0
ATTDEF
  5
1EF9
  8
0
 62
     3
 10
-107.7114519405618
 20
59.004318747429437
 30
0.0
 40
3.5
  1
Freimasstoleranzen %%p0.1
 41
0.7
 51
15.0
  3
Freimasstoleranzen:
  2
TOL
 70
     0
  0
ATTDEF
  5
1EFA
  8
0
 62
     3
 10
-107.7114519405618
 20
54.004318747429437
 30
0.0
 40
3.5
  1
nicht bemasste Radien R=0.2
 41
0.7
 51
15.0
  3
Nicht bemasste Radien:
  2
RADIEN
 70
     0
  0
ATTDEF
  5
1EFB
  8
0
 62
     3
 10
-107.7114519405618
 20
49.004318747429437
 30
0.0
 40
3.5
  1
nicht bemasste Facetten 0.5 x 45%%D
 41
0.7
 51
15.0
  3
nicht bemasste Facetten:
  2
FACETTE
 70
     0
  0
POLYLINE
  5
1EFC
  8
0
 62
     2
 66
     1
 10
0.0
 20
0.0
 30
0.0
  0
VERTEX
  5
10507
  8
0
 62
     2
 10
-191.0
 20
0.0
 30
0.0
  0
VERTEX
  5
10508
  8
0
 62
     2
 10
-191.0
 20
46.0
 30
0.0
  0
SEQEND
  5
10509
  8
0
 62
     2
  0
POLYLINE
  5
1F00
  8
0
 62
     2
 66
     1
 10
0.0
 20
0.0
 30
0.0
  0
VERTEX
  5
1050A
  8
0
 62
     2
 10
-133.0
 20
0.0
 30
0.0
  0
VERTEX
  5
1050B
  8
0
 62
     2
 10
-133.0
 20
46.0
 30
0.0
  0
SEQEND
  5
1050C
  8
0
 62
     2
  0
POLYLINE
  5
1F04
  8
0
 62
     2
 66
     1
 10
0.0
 20
0.0
 30
0.0
  0
VERTEX
  5
1050D
  8
0
 62
     2
 10
-92.0
 20
26.0
 30
0.0
  0
VERTEX
  5
1050E
  8
0
 62
     2
 10
-92.0
 20
46.0
 30
0.0
  0
SEQEND
  5
1050F
  8
0
 62
     2
  0
POLYLINE
  5
1F08
  8
0
 62
     2
 66
     1
 10
0.0
 20
0.0
 30
0.0
  0
VERTEX
  5
10510
  8
0
 62
     2
 10
-69.0
 20
26.0
 30
0.0
  0
VERTEX
  5
10511
  8
0
 62
     2
 10
-69.0
 20
46.0
 30
0.0
  0
SEQEND
  5
10512
  8
0
 62
     2
  0
ATTDEF
  5
1F0C
  8
0
 62
     4
 10
-197.1862672583826
 20
7.0
 30
0.0
 40
2.5
  1

 41
0.7
 51
15.0
  3
Index1:
  2
INDEX1
 70
     0
  0
ATTDEF
  5
1F0D
  8
0
 62
     4
 10
-190.34874260355031
 20
7.0
 30
0.0
 40
2.5
  1

 41
0.7
 51
15.0
  3
Aenderung1:
  2
A1
 70
     0
  0
ATTDEF
  5
1F0E
  8
0
 62
     4
 10
-157.34874260355031
 20
7.0
 30
0.0
 40
2.5
  1

 41
0.7
 51
15.0
  3
Datum1:
  2
DATUM1
 70
     0
  0
ATTDEF
  5
1F0F
  8
0
 62
     4
 10
-144.46499013806701
 20
7.0
 30
0.0
 40
2.5
  1

 41
0.7
 51
15.0
  3
Name1:
  2
NAME1
 70
     0
  0
ATTDEF
  5
1F10
  8
0
 62
     4
 10
-197.1862672583826
 20
12.0
 30
0.0
 40
2.5
  1

 41
0.7
 51
15.0
  3
Index2:
  2
INDEX2
 70
     0
  0
ATTDEF
  5
1F11
  8
0
 62
     4
 10
-190.34874260355031
 20
12.0
 30
0.0
 40
2.5
  1

 41
0.7
 51
15.0
  3
Aenderung2:
  2
A2
 70
     0
  0
ATTDEF
  5
1F12
  8
0
 62
     4
 10
-157.34874260355031
 20
12.0
 30
0.0
 40
2.5
  1

 41
0.7
 51
15.0
  3
Datum2:
  2
DATUM2
 70
     0
  0
ATTDEF
  5
1F13
  8
0
 62
     4
 10
-144.46499013806701
 20
12.0
 30
0.0
 40
2.5
  1

 41
0.7
 51
15.0
  3
Name2
  2
NAME2
 70
     0
  0
ATTDEF
  5
1F14
  8
0
 62
     4
 10
-197.1862672583826
 20
17.0
 30
0.0
 40
2.5
  1

 41
0.7
 51
15.0
  3
Index3:
  2
INDEX3
 70
     0
  0
ATTDEF
  5
1F15
  8
0
 62
     4
 10
-190.34874260355031
 20
17.0
 30
0.0
 40
2.5
  1

 41
0.7
 51
15.0
  3
Aenderung3
  2
A3
 70
     0
  0
ATTDEF
  5
1F16
  8
0
 62
     4
 10
-157.34874260355031
 20
17.0
 30
0.0
 40
2.5
  1

 41
0.7
 51
15.0
  3
Datum3:
  2
DATUM3
 70
     0
  0
ATTDEF
  5
1F17
  8
0
 62
     4
 10
-144.46499013806701
 20
17.0
 30
0.0
 40
2.5
  1

 41
0.7
 51
15.0
  3
Name3:
  2
NAME3
 70
     0
  0
ATTDEF
  5
1F18
  8
0
 62
     4
 10
-197.1862672583826
 20
22.0
 30
0.0
 40
2.5
  1

 41
0.7
 51
15.0
  3
Index4:
  2
INDEX4
 70
     0
  0
ATTDEF
  5
1F19
  8
0
 62
     4
 10
-190.34874260355031
 20
22.0
 30
0.0
 40
2.5
  1

 41
0.7
 51
15.0
  3
Aenderung4:
  2
A4
 70
     0
  0
ATTDEF
  5
1F1A
  8
0
 62
     4
 10
-157.34874260355031
 20
22.0
 30
0.0
 40
2.5
  1

 41
0.7
 51
15.0
  3
Datum4:
  2
DATUM4
 70
     0
  0
ATTDEF
  5
1F1B
  8
0
 62
     4
 10
-144.46499013806701
 20
22.0
 30
0.0
 40
2.5
  1

 41
0.7
 51
15.0
  3
Name4:
  2
NAME4
 70
     0
  0
ATTDEF
  5
1F1C
  8
0
 62
     4
 10
-197.1862672583826
 20
27.0
 30
0.0
 40
2.5
  1

 41
0.7
 51
15.0
  3
Index5:
  2
INDEX5
 70
     0
  0
ATTDEF
  5
1F1D
  8
0
 62
     4
 10
-190.34874260355031
 20
27.0
 30
0.0
 40
2.5
  1

 41
0.7
 51
15.0
  3
Aenderung5:
  2
A5
 70
     0
  0
ATTDEF
  5
1F1E
  8
0
 62
     4
 10
-157.34874260355031
 20
27.0
 30
0.0
 40
2.5
  1

 41
0.7
 51
15.0
  3
Datum5:
  2
DATUM5
 70
     0
  0
ATTDEF
  5
1F1F
  8
0
 62
     4
 10
-144.46499013806701
 20
27.0
 30
0.0
 40
2.5
  1

 41
0.7
 51
15.0
  3
Name5
  2
NAME5
 70
     0
  0
ATTDEF
  5
1F20
  8
0
 62
     4
 10
-197.1862672583826
 20
32.0
 30
0.0
 40
2.5
  1

 41
0.7
 51
15.0
  3
Index6:
  2
INDEX6
 70
     0
  0
ATTDEF
  5
1F21
  8
0
 62
     4
 10
-190.34874260355031
 20
32.0
 30
0.0
 40
2.5
  1

 41
0.7
 51
15.0
  3
Aenderung6:
  2
A6
 70
     0
  0
ATTDEF
  5
1F22
  8
0
 62
     4
 10
-157.34874260355031
 20
32.0
 30
0.0
 40
2.5
  1

 41
0.7
 51
15.0
  3
Datum6:
  2
DATUM6
 70
     0
  0
ATTDEF
  5
1F23
  8
0
 62
     4
 10
-144.46499013806701
 20
32.0
 30
0.0
 40
2.5
  1

 41
0.7
 51
15.0
  3
Name6:
  2
NAME6
 70
     0
  0
ATTDEF
  5
1F24
  8
0
 62
     4
 10
-197.1862672583826
 20
37.0
 30
0.0
 40
2.5
  1

 41
0.7
 51
15.0
  3
Index7:
  2
INDEX7
 70
     0
  0
ATTDEF
  5
1F25
  8
0
 62
     4
 10
-190.34874260355031
 20
37.0
 30
0.0
 40
2.5
  1

 41
0.7
 51
15.0
  3
Aenderung7:
  2
A7
 70
     0
  0
ATTDEF
  5
1F26
  8
0
 62
     4
 10
-157.34874260355031
 20
37.0
 30
0.0
 40
2.5
  1

 41
0.7
 51
15.0
  3
Datum7:
  2
DATUM7
 70
     0
  0
ATTDEF
  5
1F27
  8
0
 62
     4
 10
-144.46499013806701
 20
37.0
 30
0.0
 40
2.5
  1

 41
0.7
 51
15.0
  3
Name7:
  2
NAME7
 70
     0
  0
ATTDEF
  5
1F28
  8
0
 62
     4
 10
-197.1862672583826
 20
42.0
 30
0.0
 40
2.5
  1

 41
0.7
 51
15.0
  3
Index8:
  2
INDEX8
 70
     0
  0
ATTDEF
  5
1F29
  8
0
 62
     4
 10
-190.34874260355031
 20
42.0
 30
0.0
 40
2.5
  1

 41
0.7
 51
15.0
  3
Aenderung8:
  2
A8
 70
     0
  0
ATTDEF
  5
1F2A
  8
0
 62
     4
 10
-157.34874260355031
 20
42.0
 30
0.0
 40
2.5
  1

 41
0.7
 51
15.0
  3
Datum8:
  2
DATUM8
 70
     0
  0
ATTDEF
  5
1F2B
  8
0
 62
     4
 10
-144.46499013806701
 20
42.0
 30
0.0
 40
2.5
  1

 41
0.7
 51
15.0
  3
Name8:
  2
NAME8
 70
     0
  0
POLYLINE
  5
1F2C
  8
0
 62
     2
 66
     1
 10
0.0
 20
0.0
 30
0.0
  0
VERTEX
  5
10513
  8
0
 62
     2
 10
0.0
 20
0.0
 30
0.0
  0
VERTEX
  5
10514
  8
0
 62
     2
 10
0.0
 20
46.0
 30
0.0
  0
SEQEND
  5
10515
  8
0
 62
     2
  0
POLYLINE
  5
1F30
  8
0
 62
     2
 66
     1
 10
0.0
 20
0.0
 30
0.0
  0
VERTEX
  5
10516
  8
0
 62
     2
 10
-200.0
 20
46.0
 30
0.0
  0
VERTEX
  5
10517
  8
0
 62
     2
 10
-200.0
 20
0.0
 30
0.0
  0
SEQEND
  5
10518
  8
0
 62
     2
  0
POLYLINE
  5
1F34
  8
0
 62
     2
 66
     1
 10
0.0
 20
0.0
 30
0.0
  0
VERTEX
  5
10519
  8
0
 62
     2
 10
0.0
 20
9.0
 30
0.0
  0
VERTEX
  5
1051A
  8
0
 62
     2
 10
-133.0
 20
9.0
 30
0.0
  0
SEQEND
  5
1051B
  8
0
 62
     2
  0
POLYLINE
  5
1F38
  8
0
 62
     2
 66
     1
 10
0.0
 20
0.0
 30
0.0
  0
VERTEX
  5
1051C
  8
0
 62
     2
 10
0.0
 20
18.0
 30
0.0
  0
VERTEX
  5
1051D
  8
0
 62
     2
 10
-51.0
 20
18.0
 30
0.0
  0
SEQEND
  5
1051E
  8
0
 62
     2
  0
POLYLINE
  5
1F3C
  8
0
 62
     2
 66
     1
 10
0.0
 20
0.0
 30
0.0
  0
VERTEX
  5
1051F
  8
0
 62
     2
 10
0.0
 20
26.0
 30
0.0
  0
VERTEX
  5
10520
  8
0
 62
     2
 10
-133.0
 20
26.0
 30
0.0
  0
SEQEND
  5
10521
  8
0
 62
     2
  0
POLYLINE
  5
1F40
  8
0
 62
     2
 66
     1
 10
0.0
 20
0.0
 30
0.0
  0
VERTEX
  5
10522
  8
0
 62
     2
 10
0.0
 20
31.0
 30
0.0
  0
VERTEX
  5
10523
  8
0
 62
     2
 10
-51.0
 20
31.0
 30
0.0
  0
SEQEND
  5
10524
  8
0
 62
     2
  0
POLYLINE
  5
1F44
  8
0
 62
     2
 66
     1
 10
0.0
 20
0.0
 30
0.0
  0
VERTEX
  5
10525
  8
0
 62
     2
 10
0.0
 20
36.0
 30
0.0
  0
VERTEX
  5
10526
  8
0
 62
     2
 10
-51.0
 20
36.0
 30
0.0
  0
SEQEND
  5
10527
  8
0
 62
     2
  0
POLYLINE
  5
1F48
  8
0
 62
     2
 66
     1
 10
0.0
 20
0.0
 30
0.0
  0
VERTEX
  5
10528
  8
0
 62
     2
 10
0.0
 20
41.0
 30
0.0
  0
VERTEX
  5
10529
  8
0
 62
     2
 10
-51.0
 20
41.0
 30
0.0
  0
SEQEND
  5
1052A
  8
0
 62
     2
  0
POLYLINE
  5
1F4C
  8
0
 62
     2
 66
     1
 10
0.0
 20
0.0
 30
0.0
  0
VERTEX
  5
1052B
  8
0
 62
     2
 10
0.0
 20
46.0
 30
0.0
  0
VERTEX
  5
1052C
  8
0
 62
     2
 10
-200.0
 20
46.0
 30
0.0
  0
SEQEND
  5
1052D
  8
0
 62
     2
  0
TEXT
  5
1F50
  8
035
 10
517.65315784783218
 20
512.84858999021753
 30
0.0
 40
3.5
  1
  
 41
0.7
 51
15.0
  0
LINE
  5
1F51
  8
035
 10
-128.75556832048619
 20
3.2089522248458731
 30
0.0
 11
-126.70616955508621
 21
3.2089522248458731
 31
0.0
  0
LINE
  5
1F52
  8
035
 10
-128.094709021699
 20
6.1898958836096174
 30
0.0
 11
-125.67269229895351
 21
6.1898958836096174
 31
0.0
  0
LINE
  5
1F53
  8
035
 10
-128.75556832048619
 20
3.2089522248458731
 30
0.0
 11
-128.094709021699
 21
6.1898958836096174
 31
0.0
  0
LINE
  5
1F54
  8
035
 10
-126.70616955508621
 20
3.2089522248458731
 30
0.0
 11
-126.33443619951839
 21
4.8857330329004274
 31
0.0
  0
LINE
  5
1F55
  8
035
 10
-122.1415995776042
 20
3.2089522248458731
 30
0.0
 11
-121.480740278817
 21
6.1898958836096174
 31
0.0
  0
LINE
  5
1F56
  8
035
 10
-123.8192649874365
 20
4.8857330329004611
 30
0.0
 11
-123.53013904421699
 21
6.1898958836096174
 31
0.0
  0
LINE
  5
1F57
  8
035
 10
-126.33443619951839
 20
4.8857330329004611
 30
0.0
 11
-124.47046181101339
 21
3.2089522248458731
 31
0.0
  0
LINE
  5
1F58
  8
035
 10
-125.67269229895351
 20
6.1898958836096174
 30
0.0
 11
-123.8192649874365
 21
4.8857330329004611
 31
0.0
  0
LINE
  5
1F59
  8
035
 10
-123.53013904421699
 20
6.1898958836096174
 30
0.0
 11
-121.480740278817
 21
6.1898958836096174
 31
0.0
  0
LINE
  5
1F5A
  8
035
 10
-124.47046181101339
 20
3.2089522248458731
 30
0.0
 11
-122.1415995776042
 21
3.2089522248458731
 31
0.0
  0
LINE
  5
1F5B
  8
035
 10
-121.1169001949041
 20
3.2089522248458731
 30
0.0
 11
-120.4560408961169
 21
6.1898958836096174
 31
0.0
  0
LINE
  5
1F5C
  8
035
 10
-118.9504523853178
 20
3.736926343802164
 30
0.0
 11
-118.77564378256569
 21
4.5254369947496018
 31
0.0
  0
LINE
  5
1F5D
  8
035
 10
-115.5152366557929
 20
4.5254369947496018
 30
0.0
 11
-115.4380926508824
 21
4.8734111137059379
 31
0.0
  0
LINE
  5
1F5E
  8
035
 10
-115.5276308347222
 20
3.2089522248458731
 30
0.0
 11
-115.410581790536
 21
3.736926343802164
 31
0.0
  0
LINE
  5
1F5F
  8
035
 10
-121.1169001949041
 20
3.2089522248458731
 30
0.0
 11
-115.5276308347222
 21
3.2089522248458731
 31
0.0
  0
LINE
  5
1F60
  8
035
 10
-120.4560408961169
 20
6.1898958836096174
 30
0.0
 11
-114.8667715359349
 21
6.1898958836096174
 31
0.0
  0
LINE
  5
1F61
  8
035
 10
-118.6984997776553
 20
4.8734111137059379
 30
0.0
 11
-118.52369117490301
 21
5.6619217646532061
 31
0.0
  0
LINE
  5
1F62
  8
035
 10
-114.9838205801212
 20
5.6619217646532229
 30
0.0
 11
-114.8667715359349
 21
6.1898958836096174
 31
0.0
  0
LINE
  5
1F63
  8
035
 10
-114.39422102995231
 20
4.1195059973169093
 30
0.0
 11
-113.93522664257119
 21
6.1898958836096174
 31
0.0
  0
LINE
  5
1F64
  8
035
 10
-112.2931360945968
 20
4.3759284459971211
 30
0.0
 11
-111.8909891954701
 21
6.1898958836096174
 31
0.0
  0
LINE
  5
1F65
  8
035
 10
-110.0519479814474
 20
4.2792745494674778
 30
0.0
 11
-109.62837342933619
 21
6.1898958836096174
 31
0.0
  0
LINE
  5
1F66
  8
035
 10
-108.0752437571043
 20
3.9747288889998709
 30
0.0
 11
-107.5841530575365
 21
6.1898958836096174
 31
0.0
  0
LINE
  5
1F67
  8
035
 10
-113.93522664257119
 20
6.1898958836096174
 30
0.0
 11
-111.8909891954701
 21
6.1898958836096174
 31
0.0
  0
POLYLINE
  5
1F68
  8
035
 66
     1
 10
0.0
 20
0.0
 30
0.0
  0
VERTEX
  5
1052E
  8
035
 10
-114.39422102995211
 20
4.1195059973169093
 30
0.0
 42
0.0533041479355404
  0
VERTEX
  5
1052F
  8
035
 10
-114.40193616494869
 20
4.0473426288731407
 30
0.0
 42
0.2429550060825716
  0
SEQEND
  5
10530
  8
035
  0
POLYLINE
  5
1F6C
  8
035
 66
     1
 10
0.0
 20
0.0
 30
0.0
  0
VERTEX
  5
10531
  8
035
 10
-114.40193616494869
 20
4.0473426288731407
 30
0.0
 42
0.2429550060825716
  0
VERTEX
  5
10532
  8
035
 10
-114.2582140839238
 20
3.76902241533011
 30
0.0
 42
0.0830391319818528
  0
VERTEX
  5
10533
  8
035
 10
-113.47426934517441
 20
3.3886409177960242
 30
0.0
 42
0.0412286692587949
  0
VERTEX
  5
10534
  8
035
 10
-112.53523592918479
 20
3.1947274822628482
 30
0.0
 42
0.0303168106148105
  0
VERTEX
  5
10535
  8
035
 10
-111.2346835275122
 20
3.115797735509434
 30
0.0
 42
0.0303168106148056
  0
VERTEX
  5
10536
  8
035
 10
-109.9341311258396
 20
3.1947274822628482
 30
0.0
 42
0.0412286692587985
  0
VERTEX
  5
10537
  8
035
 10
-108.99509770985
 20
3.3886409177960242
 30
0.0
 42
0.0830391319818556
  0
VERTEX
  5
10538
  8
035
 10
-108.2111529711005
 20
3.76902241533011
 30
0.0
 42
0.1868768484129985
  0
VERTEX
  5
10539
  8
035
 10
-108.0752437571044
 20
3.9747288889998709
 30
0.0
 42
0.2429550060826199
  0
SEQEND
  5
1053A
  8
035
  0
POLYLINE
  5
1F77
  8
035
 66
     1
 10
0.0
 20
0.0
 30
0.0
  0
VERTEX
  5
1053B
  8
035
 10
-112.2988649389131
 20
4.3268060968822528
 30
0.0
 42
0.1991045112703633
  0
VERTEX
  5
1053C
  8
035
 10
-112.2362306163629
 20
4.1757514211997337
 30
0.0
 42
0.0984366758760737
  0
VERTEX
  5
1053D
  8
035
 10
-111.9690267473226
 20
3.9974552413436268
 30
0.0
 42
0.0556835448182592
  0
VERTEX
  5
1053E
  8
035
 10
-111.63143976912821
 20
3.9000426884620101
 30
0.0
 42
0.0424435076919051
  0
VERTEX
  5
1053F
  8
035
 10
-111.172726911796
 20
3.8610336502004512
 30
0.0
 42
0.0424435076918822
  0
VERTEX
  5
10540
  8
035
 10
-110.7140140544636
 20
3.9000426884619421
 30
0.0
 42
0.0556835448182298
  0
VERTEX
  5
10541
  8
035
 10
-110.3764270762692
 20
3.9974552413436268
 30
0.0
 42
0.0984366758760371
  0
VERTEX
  5
10542
  8
035
 10
-110.10922320722899
 20
4.1757514211996316
 30
0.0
 42
0.1413271427614488
  0
VERTEX
  5
10543
  8
035
 10
-110.0519479814474
 20
4.2792745494674778
 30
0.0
 42
0.1991045112703793
  0
SEQEND
  5
10544
  8
035
  0
POLYLINE
  5
1F82
  8
035
 66
     1
 10
0.0
 20
0.0
 30
0.0
  0
VERTEX
  5
10545
  8
035
 10
-112.2931360945968
 20
4.3759284459971211
 30
0.0
 42
0.0581150540440913
  0
VERTEX
  5
10546
  8
035
 10
-112.2988649389131
 20
4.3268060968822528
 30
0.0
 42
0.1991045112703633
  0
SEQEND
  5
10547
  8
035
  0
LINE
  5
1F86
  8
035
 10
-109.62837342933619
 20
6.1898958836096174
 30
0.0
 11
-107.5841530575366
 21
6.1898958836096174
 31
0.0
  0
LINE
  5
1F87
  8
035
 10
-107.20700925637691
 20
5.444659968918617
 30
0.0
 11
-107.0417944316801
 21
6.1898958836096174
 31
0.0
  0
LINE
  5
1F88
  8
035
 10
-105.83956394374
 20
3.2089522248458731
 30
0.0
 11
-105.34391946964951
 21
5.444659968918617
 31
0.0
  0
LINE
  5
1F89
  8
035
 10
-103.79016517834
 20
3.2089522248458731
 30
0.0
 11
-103.29452070424939
 21
5.444659968918617
 31
0.0
  0
LINE
  5
1F8A
  8
035
 10
-101.33827642818569
 20
5.444659968918617
 30
0.0
 11
-101.173061603489
 21
6.1898958836096174
 31
0.0
  0
LINE
  5
1F8B
  8
035
 10
-107.20700925637691
 20
5.444659968918617
 30
0.0
 11
-105.34391946964951
 21
5.444659968918617
 31
0.0
  0
LINE
  5
1F8C
  8
035
 10
-105.83956394374
 20
3.2089522248458731
 30
0.0
 11
-103.79016517834
 21
3.2089522248458731
 31
0.0
  0
LINE
  5
1F8D
  8
035
 10
-107.0417944316801
 20
6.1898958836096174
 30
0.0
 11
-101.173061603489
 21
6.1898958836096174
 31
0.0
  0
LINE
  5
1F8E
  8
035
 10
-103.29452070424939
 20
5.444659968918617
 30
0.0
 11
-101.33827642818569
 21
5.444659968918617
 31
0.0
  0
LINE
  5
1F8F
  8
035
 10
-101.1818394769216
 20
3.2089522248458051
 30
0.0
 11
-100.52098017813439
 21
6.189895883609565
 31
0.0
  0
LINE
  5
1F90
  8
035
 10
-99.132440711521582
 20
3.2089522248458051
 30
0.0
 11
-98.886017141374879
 21
4.3204971182094676
 31
0.0
  0
LINE
  5
1F91
  8
035
 10
-101.1818394769216
 20
3.2089522248458051
 30
0.0
 11
-99.132440711521582
 21
3.2089522248458051
 31
0.0
  0
LINE
  5
1F92
  8
035
 10
-100.52098017813439
 20
6.1898958836096174
 30
0.0
 11
-95.290928624759346
 21
6.1898958836096174
 31
0.0
  0
LINE
  5
1F93
  8
035
 10
-94.918674734898246
 20
3.5209063363026778
 30
0.0
 11
-94.870132257751479
 21
4.2150961012516648
 31
0.0
  0
LINE
  5
1F94
  8
035
 10
-96.973279920251144
 20
3.446451062164297
 30
0.0
 11
-96.935760818494984
 21
3.9925148410080471
 31
0.0
  0
LINE
  5
1F95
  8
035
 10
-98.808873136464385
 20
4.6684712371658197
 30
0.0
 11
-98.588630456920498
 21
5.6619217646532061
 31
0.0
  0
ARC
  5
1F96
  8
035
 10
-94.454036886486776
 20
3.4884156928548999
 30
0.0
 40
0.4657724466818367
 50
175.99999999999881
 51
216.8698976458987
  0
ARC
  5
1F97
  8
035
 10
-96.524731588143297
 20
3.4524951785273088
 30
0.0
 40
0.4485890520078757
 50
180.77200466132189
 51
212.88187534886279
  0
LINE
  5
1F98
  8
035
 10
-96.901452927192295
 20
3.2089522248458051
 30
0.0
 11
-94.826654843831534
 21
3.2089522248458051
 31
0.0
  0
POLYLINE
  5
1F99
  8
035
 66
     1
 10
0.0
 20
0.0
 30
0.0
  0
VERTEX
  5
10548
  8
035
 10
-94.870132257750413
 20
4.2150961012515626
 30
0.0
 42
0.0848312786284099
  0
VERTEX
  5
10549
  8
035
 10
-94.880776466524537
 20
4.3297877881289271
 30
0.0
 42
0.1530484383254131
  0
VERTEX
  5
1054A
  8
035
 10
-94.990370323852645
 20
4.502459983347026
 30
0.0
 42
0.0253150863346336
  0
VERTEX
  5
1054B
  8
035
 10
-95.04547907006534
 20
4.5444320109185954
 30
0.0
 42
0.0679481782030558
  0
SEQEND
  5
1054C
  8
035
  0
POLYLINE
  5
1F9F
  8
035
 66
     1
 10
0.0
 20
0.0
 30
0.0
  0
VERTEX
  5
1054D
  8
035
 10
-95.04547907006534
 20
4.5444320109185954
 30
0.0
 42
0.0153688240491597
  0
VERTEX
  5
1054E
  8
035
 10
-94.909079219236318
 20
4.6142399160250331
 30
0.0
 42
0.0739810726103034
  0
VERTEX
  5
1054F
  8
035
 10
-94.516614304132929
 20
4.9135000826235373
 30
0.0
 42
0.1068944749256624
  0
VERTEX
  5
10550
  8
035
 10
-94.271190998582497
 20
5.3061237676075068
 30
0.0
 42
0.1530484383253946
  0
VERTEX
  5
10551
  8
035
 10
-94.257471051485311
 20
5.6330604656076471
 30
0.0
 42
0.1530484383254131
  0
VERTEX
  5
10552
  8
035
 10
-94.432821223210169
 20
5.9093359779565686
 30
0.0
 42
0.1068944749256794
  0
VERTEX
  5
10553
  8
035
 10
-94.841675882989591
 20
6.126646410505006
 30
0.0
 42
0.0679481782030558
  0
VERTEX
  5
10554
  8
035
 10
-95.290928624759346
 20
6.1898958836113041
 30
0.0
 42
0.0605663674549872
  0
SEQEND
  5
10555
  8
035
  0
LINE
  5
1FA9
  8
035
 10
-93.915789308684992
 20
3.2089522248458051
 30
0.0
 11
-93.254930009897706
 21
6.189895883609565
 31
0.0
  0
LINE
  5
1FAA
  8
035
 10
-91.86639054328495
 20
3.2089522248458051
 30
0.0
 11
-91.205531244497678
 21
6.189895883609565
 31
0.0
  0
LINE
  5
1FAB
  8
035
 10
-93.915789308684992
 20
3.2089522248458051
 30
0.0
 11
-91.86639054328495
 21
3.2089522248458051
 31
0.0
  0
LINE
  5
1FAC
  8
035
 10
-93.254930009897706
 20
6.189895883609565
 30
0.0
 11
-91.205531244497678
 21
6.189895883609565
 31
0.0
  0
LINE
  5
1FAD
  8
035
 10
-90.655382181912188
 20
3.2089522248458051
 30
0.0
 11
-89.994522883124887
 21
6.189895883609565
 31
0.0
  0
LINE
  5
1FAE
  8
035
 10
-88.699137905848474
 20
3.2089522248458051
 30
0.0
 11
-88.533923081151713
 21
3.954188139536805
 31
0.0
  0
LINE
  5
1FAF
  8
035
 10
-89.994522883124887
 20
6.189895883609565
 30
0.0
 11
-88.038278607061187
 21
6.189895883609565
 31
0.0
  0
LINE
  5
1FB0
  8
035
 10
-90.655382181912188
 20
3.2089522248458051
 30
0.0
 11
-88.699137905848474
 21
3.2089522248458051
 31
0.0
  0
LINE
  5
1FB1
  8
035
 10
-88.533923081151713
 20
3.954188139536805
 30
0.0
 11
-87.659502509444039
 21
4.3268060968822528
 31
0.0
  0
LINE
  5
1FB2
  8
035
 10
-88.261804546356856
 20
5.1816355284394691
 30
0.0
 11
-85.895725352324675
 21
6.189895883609565
 31
0.0
  0
LINE
  5
1FB3
  8
035
 10
-85.895725352324675
 20
6.189895883609565
 30
0.0
 11
-83.287399650906423
 21
6.189895883609565
 31
0.0
  0
LINE
  5
1FB4
  8
035
 10
-87.659502509444039
 20
4.3268060968822528
 30
0.0
 11
-86.556584651112004
 21
3.2089522248458051
 31
0.0
  0
LINE
  5
1FB5
  8
035
 10
-85.692056223102114
 20
5.1651965009095901
 30
0.0
 11
-83.761949971020954
 21
3.2089522248458051
 31
0.0
  0
LINE
  5
1FB6
  8
035
 10
-85.692056223102114
 20
5.1651965009095901
 30
0.0
 11
-83.287399650906423
 21
6.189895883609565
 31
0.0
  0
LINE
  5
1FB7
  8
035
 10
-88.261804546356856
 20
5.1816355284394691
 30
0.0
 11
-88.038278607061187
 21
6.189895883609565
 31
0.0
  0
LINE
  5
1FB8
  8
035
 10
-86.556584651112004
 20
3.2089522248458051
 30
0.0
 11
-83.761949971020954
 21
3.2089522248458051
 31
0.0
  0
TEXT
  5
1FB9
  8
035
 62
     4
 10
-78.273304881030242
 20
3.264636211106505
 30
0.0
 40
2.484848484848484
  1
NINGBO CHINA
 41
0.85
 51
15.0
  7
HELV
  0
LINE
  5
1FBA
  8
035
 10
-118.52369117490301
 20
5.6619217646532061
 30
0.0
 11
-114.9838205801212
 21
5.6619217646532229
 31
0.0
  0
LINE
  5
1FBB
  8
035
 10
-118.6984997776553
 20
4.8734111137059379
 30
0.0
 11
-115.4380926508824
 21
4.8734111137059379
 31
0.0
  0
LINE
  5
1FBC
  8
035
 10
-118.77564378256569
 20
4.5254369947496018
 30
0.0
 11
-115.5152366557929
 21
4.5254369947496018
 31
0.0
  0
LINE
  5
1FBD
  8
035
 10
-118.9504523853178
 20
3.736926343802164
 30
0.0
 11
-115.410581790536
 21
3.736926343802164
 31
0.0
  0
LINE
  5
1FBE
  8
0
 62
     4
 10
-83.394402359718015
 20
6.144298682356693
 30
0.0
 11
-83.348805158465154
 21
6.1898958836095481
 31
0.0
  0
LINE
  5
1FBF
  8
0
 62
     4
 10
-83.784164404957352
 20
3.2089522248457878
 30
0.0
 11
-83.772982485333955
 21
3.2201341444691729
 31
0.0
  0
LINE
  5
1FC0
  8
035
 10
-98.588630456920498
 20
5.6619217646532061
 30
0.0
 11
-96.900758252506478
 21
5.6619217646532061
 31
0.0
  0
LINE
  5
1FC1
  8
035
 10
-98.808873136464385
 20
4.6684712371658197
 30
0.0
 11
-97.176482420097443
 21
4.6684712371658197
 31
0.0
  0
LINE
  5
1FC2
  8
035
 10
-98.886017141374879
 20
4.3204971182094676
 30
0.0
 11
-97.147354744985734
 21
4.3204971182094676
 31
0.0
  0
LINE
  5
1FC3
  8
035
 10
-96.900758252506478
 20
5.6619217646532061
 30
0.0
 11
-96.767537947348103
 21
5.6401251817589433
 31
0.0
  0
LINE
  5
1FC4
  8
035
 10
-96.767537947348103
 20
5.6401251817589433
 30
0.0
 11
-96.652102072247857
 21
5.5816478242916414
 31
0.0
  0
LINE
  5
1FC5
  8
035
 10
-96.652102072247857
 20
5.5816478242916414
 30
0.0
 11
-96.596690756971086
 21
5.4923963524172636
 31
0.0
  0
LINE
  5
1FC6
  8
035
 10
-96.596690756971086
 20
5.4923963524172636
 30
0.0
 11
-96.553596393071174
 21
5.3846780336826923
 31
0.0
  0
LINE
  5
1FC7
  8
035
 10
-96.553596393071174
 20
5.3846780336826923
 30
0.0
 11
-96.552054903409157
 21
5.2677292642879561
 31
0.0
  0
LINE
  5
1FC8
  8
035
 10
-96.552054903409157
 20
5.2677292642879561
 30
0.0
 11
-96.564368113306287
 21
5.0984567711993662
 31
0.0
  0
LINE
  5
1FC9
  8
035
 10
-96.564368113306287
 20
5.0984567711993662
 30
0.0
 11
-96.625937904271467
 21
4.9953581369497799
 31
0.0
  0
LINE
  5
1FCA
  8
035
 10
-96.625937904271467
 20
4.9953581369497799
 30
0.0
 11
-96.735215303683276
 21
4.8676330765267011
 31
0.0
  0
LINE
  5
1FCB
  8
035
 10
-96.735215303683276
 20
4.8676330765267011
 30
0.0
 11
-96.899907759851644
 21
4.7691481812222181
 31
0.0
  0
LINE
  5
1FCC
  8
035
 10
-96.899907759851644
 20
4.7691481812222181
 30
0.0
 11
-97.056903992149316
 21
4.6891301327779473
 31
0.0
  0
LINE
  5
1FCD
  8
035
 10
-97.056903992149316
 20
4.6891301327779473
 30
0.0
 11
-97.176482420097443
 21
4.6684712371658197
 31
0.0
  0
LINE
  5
1FCE
  8
035
 10
-97.147354744985734
 20
4.3204971182094676
 30
0.0
 11
-97.047898250361925
 21
4.3065049139473466
 31
0.0
  0
LINE
  5
1FCF
  8
035
 10
-97.047898250361925
 20
4.3065049139473466
 30
0.0
 11
-96.984057381181131
 21
4.2661287526377603
 31
0.0
  0
LINE
  5
1FD0
  8
035
 10
-96.984057381181131
 20
4.2661287526377603
 30
0.0
 11
-96.944973883586158
 21
4.2023033820504541
 31
0.0
  0
LINE
  5
1FD1
  8
035
 10
-96.944973883586158
 20
4.2023033820504541
 30
0.0
 11
-96.926734169745899
 21
4.1254543063610036
 31
0.0
  0
LINE
  5
1FD2
  8
035
 10
-96.926734169745899
 20
4.1254543063610036
 30
0.0
 11
-96.935760818494984
 21
3.9925148410080471
 31
0.0
  0
LINE
  5
1FD3
  8
035
 62
     3
 10
-99.397082133556324
 20
3.2089522248457878
 30
0.0
 11
-99.057059510901098
 21
3.5489748475010141
 31
0.0
  0
LINE
  5
1FD4
  8
035
 62
     3
 10
-96.944112593748883
 20
5.6619217646532229
 30
0.0
 11
-96.416138474792476
 21
6.1898958836096334
 31
0.0
  0
LINE
  5
1FD5
  8
035
 62
     3
 10
-98.285537240192653
 20
4.3204971182094676
 30
0.0
 11
-97.93756312123628
 21
4.6684712371658197
 31
0.0
  0
LINE
  5
1FD6
  8
035
 62
     3
 10
-99.778919795397044
 20
3.2089522248457878
 30
0.0
 11
-98.94829580652565
 21
4.0395762137171944
 31
0.0
  0
LINE
  5
1FD7
  8
035
 62
     3
 10
-97.325950255589589
 20
5.6619217646532229
 30
0.0
 11
-96.79797613663321
 21
6.1898958836096334
 31
0.0
  0
LINE
  5
1FD8
  8
035
 62
     3
 10
-98.667374902033359
 20
4.3204971182094676
 30
0.0
 11
-98.319400783077015
 21
4.6684712371658197
 31
0.0
  0
LINE
  5
1FD9
  8
035
 62
     3
 10
-100.16075745723781
 20
3.2089522248457878
 30
0.0
 11
-98.701238444917735
 21
4.6684712371658197
 31
0.0
  0
LINE
  5
1FDA
  8
035
 62
     3
 10
-97.707787917430323
 20
5.6619217646532229
 30
0.0
 11
-97.179813798473916
 21
6.1898958836096334
 31
0.0
  0
LINE
  5
1FDB
  8
035
 62
     3
 10
-100.5425951190785
 20
3.2089522248457878
 30
0.0
 11
-98.730768397774682
 21
5.0207789461496377
 31
0.0
  0
LINE
  5
1FDC
  8
035
 62
     3
 10
-98.089625579271086
 20
5.6619217646532229
 30
0.0
 11
-97.561651460314664
 21
6.1898958836096334
 31
0.0
  0
LINE
  5
1FDD
  8
035
 62
     3
 10
-100.9244327809192
 20
3.2089522248457878
 30
0.0
 11
-98.62200469339912
 21
5.5113803123659197
 31
0.0
  0
LINE
  5
1FDE
  8
035
 62
     3
 10
-98.47146324111182
 20
5.6619217646532229
 30
0.0
 11
-97.943489122155412
 21
6.1898958836096334
 31
0.0
  0
LINE
  5
1FDF
  8
035
 62
     3
 10
-101.1463962136292
 20
3.3688264539765349
 30
0.0
 11
-98.325326783996161
 21
6.1898958836096334
 31
0.0
  0
LINE
  5
1FE0
  8
035
 62
     3
 10
-101.0376325092537
 20
3.8594278201927321
 30
0.0
 11
-98.707164445836867
 21
6.1898958836096334
 31
0.0
  0
LINE
  5
1FE1
  8
035
 62
     3
 10
-100.92886880487831
 20
4.3500291864089462
 30
0.0
 11
-99.089002107677615
 21
6.1898958836096334
 31
0.0
  0
LINE
  5
1FE2
  8
035
 62
     3
 10
-100.8201051005028
 20
4.8406305526251421
 30
0.0
 11
-99.470839769518363
 21
6.1898958836096334
 31
0.0
  0
LINE
  5
1FE3
  8
035
 62
     3
 10
-100.7113413961273
 20
5.3312319188413557
 30
0.0
 11
-99.852677431359055
 21
6.1898958836096334
 31
0.0
  0
LINE
  5
1FE4
  8
035
 62
     3
 10
-100.6025776917519
 20
5.8218332850575534
 30
0.0
 11
-100.2345150931998
 21
6.1898958836096334
 31
0.0
  0
LINE
  5
1FE5
  8
035
 62
     3
 10
-101.3615886697315
 20
5.444659968918617
 30
0.0
 11
-101.33163610429619
 21
5.4746125343539136
 31
0.0
  0
LINE
  5
1FE6
  8
035
 62
     3
 10
-103.97913407564501
 20
3.2089522248458562
 30
0.0
 11
-103.7363387506806
 21
3.4517475498102299
 31
0.0
  0
LINE
  5
1FE7
  8
035
 62
     3
 10
-101.74342633157229
 20
5.444659968918617
 30
0.0
 11
-101.2228723999209
 21
5.9652139005700429
 31
0.0
  0
LINE
  5
1FE8
  8
035
 62
     3
 10
-104.3609717374858
 20
3.2089522248458562
 30
0.0
 11
-103.6275750463052
 21
3.9423489160264769
 31
0.0
  0
LINE
  5
1FE9
  8
035
 62
     3
 10
-102.125263993413
 20
5.444659968918617
 30
0.0
 11
-101.38002807872201
 21
6.1898958836096334
 31
0.0
  0
LINE
  5
1FEA
  8
035
 62
     3
 10
-104.7428093993265
 20
3.2089522248458562
 30
0.0
 11
-103.51881134192971
 21
4.4329502822427092
 31
0.0
  0
LINE
  5
1FEB
  8
035
 62
     3
 10
-102.50710165525381
 20
5.444659968918617
 30
0.0
 11
-101.7618657405627
 21
6.1898958836096334
 31
0.0
  0
LINE
  5
1FEC
  8
035
 62
     3
 10
-105.1246470611672
 20
3.2089522248458562
 30
0.0
 11
-103.4100476375542
 21
4.9235516484589388
 31
0.0
  0
LINE
  5
1FED
  8
035
 62
     3
 10
-102.8889393170945
 20
5.444659968918617
 30
0.0
 11
-102.1437034024035
 21
6.1898958836096334
 31
0.0
  0
LINE
  5
1FEE
  8
035
 62
     3
 10
-105.506484723008
 20
3.2089522248458562
 30
0.0
 11
-103.30128393317869
 21
5.4141530146751533
 31
0.0
  0
LINE
  5
1FEF
  8
035
 62
     3
 10
-103.2707769789352
 20
5.444659968918617
 30
0.0
 11
-102.52554106424419
 21
6.1898958836096334
 31
0.0
  0
LINE
  5
1FF0
  8
035
 62
     3
 10
-105.82567545340881
 20
3.2715991562857849
 30
0.0
 11
-102.9073787260849
 21
6.1898958836096334
 31
0.0
  0
LINE
  5
1FF1
  8
035
 62
     3
 10
-105.7169117490333
 20
3.7622005225019981
 30
0.0
 11
-103.28921638792571
 21
6.1898958836096334
 31
0.0
  0
LINE
  5
1FF2
  8
035
 62
     3
 10
-105.6081480446579
 20
4.2528018887182286
 30
0.0
 11
-103.6710540497664
 21
6.1898958836096334
 31
0.0
  0
LINE
  5
1FF3
  8
035
 62
     3
 10
-105.4993843402824
 20
4.7434032549344263
 30
0.0
 11
-104.0528917116071
 21
6.1898958836096334
 31
0.0
  0
LINE
  5
1FF4
  8
035
 62
     3
 10
-105.3906206359069
 20
5.2340046211506399
 30
0.0
 11
-104.43472937344789
 21
6.1898958836096334
 31
0.0
  0
LINE
  5
1FF5
  8
035
 62
     3
 10
-105.56180294997959
 20
5.444659968918617
 30
0.0
 11
-104.8165670352886
 21
6.1898958836096334
 31
0.0
  0
LINE
  5
1FF6
  8
035
 62
     3
 10
-105.9436406118204
 20
5.444659968918617
 30
0.0
 11
-105.19840469712931
 21
6.1898958836096334
 31
0.0
  0
LINE
  5
1FF7
  8
035
 62
     3
 10
-106.3254782736611
 20
5.444659968918617
 30
0.0
 11
-105.5802423589701
 21
6.1898958836096334
 31
0.0
  0
LINE
  5
1FF8
  8
035
 62
     3
 10
-108.6223837756901
 20
3.5295921287303851
 30
0.0
 11
-108.0461888645634
 21
4.1057870398570309
 31
0.0
  0
LINE
  5
1FF9
  8
035
 62
     3
 10
-106.7073159355018
 20
5.444659968918617
 30
0.0
 11
-105.9620800208108
 21
6.1898958836096334
 31
0.0
  0
LINE
  5
1FFA
  8
035
 62
     3
 10
-109.20187581553419
 20
3.3319377507270209
 30
0.0
 11
-107.9374251601879
 21
4.5963884060732454
 31
0.0
  0
LINE
  5
1FFB
  8
035
 62
     3
 10
-107.0891535973426
 20
5.444659968918617
 30
0.0
 11
-106.34391768265159
 21
6.1898958836096334
 31
0.0
  0
LINE
  5
1FFC
  8
035
 62
     3
 10
-109.685112547144
 20
3.2305386809579169
 30
0.0
 11
-107.82866145581249
 21
5.086989772289475
 31
0.0
  0
LINE
  5
1FFD
  8
035
 62
     3
 10
-107.13181588656821
 20
5.7838353415337762
 30
0.0
 11
-106.7257553444923
 21
6.1898958836096334
 31
0.0
  0
LINE
  5
1FFE
  8
035
 62
     3
 10
-110.1242038578462
 20
3.1732850320964721
 30
0.0
 11
-107.719897751437
 21
5.5775911385057064
 31
0.0
  0
LINE
  5
1FFF
  8
035
 62
     3
 10
-110.54114237449591
 20
3.1381841772874299
 30
0.0
 11
-107.6111340470615
 21
6.0681925047219201
 31
0.0
  0
LINE
  5
2000
  8
035
 62
     3
 10
-110.9413656849794
 20
3.1197985286446981
 30
0.0
 11
-107.8712683300145
 21
6.1898958836096174
 31
0.0
  0
LINE
  5
2001
  8
035
 62
     3
 10
-111.3268095365532
 20
3.1161923389116928
 30
0.0
 11
-110.4862919020804
 21
3.9567099733844451
 31
0.0
  0
LINE
  5
2002
  8
035
 62
     3
 10
-110.0201084412425
 20
4.4228934342223249
 30
0.0
 11
-108.25310599185519
 21
6.1898958836096174
 31
0.0
  0
LINE
  5
2003
  8
035
 62
     3
 10
-111.69901312532539
 20
3.1258264119801851
 30
0.0
 11
-110.95507239316839
 21
3.8697671441372301
 31
0.0
  0
LINE
  5
2004
  8
035
 62
     3
 10
-109.91134473686699
 20
4.9134948004385732
 30
0.0
 11
-108.634943653696
 21
6.1898958836096174
 31
0.0
  0
LINE
  5
2005
  8
035
 62
     3
 10
-112.05922377853371
 20
3.1474534206126319
 30
0.0
 11
-111.3404602385114
 21
3.866216960634917
 31
0.0
  0
LINE
  5
2006
  8
035
 62
     3
 10
-109.8025810324915
 20
5.4040961666548384
 30
0.0
 11
-109.0167813155367
 21
6.1898958836096174
 31
0.0
  0
LINE
  5
2007
  8
035
 62
     3
 10
-112.40846839019569
 20
3.1800464707913392
 30
0.0
 11
-111.6794767945423
 21
3.9090380664447841
 31
0.0
  0
LINE
  5
2008
  8
035
 62
     3
 10
-109.693817328116
 20
5.8946975328710858
 30
0.0
 11
-109.3986189773774
 21
6.1898958836096174
 31
0.0
  0
LINE
  5
2009
  8
035
 62
     3
 10
-112.746026423499
 20
3.2243260993287799
 30
0.0
 11
-111.9717607396246
 21
3.9985917832031901
 31
0.0
  0
LINE
  5
200A
  8
035
 62
     3
 10
-113.0674304360607
 20
3.2847597486078559
 30
0.0
 11
-112.2055448239268
 21
4.1466453607417657
 31
0.0
  0
LINE
  5
200B
  8
035
 62
     3
 10
-113.37392582005521
 20
3.3601020264540549
 30
0.0
 11
-112.27463176538591
 21
4.4593960811233924
 31
0.0
  0
LINE
  5
200C
  8
035
 62
     3
 10
-113.66365029250341
 20
3.4522152158466688
 30
0.0
 11
-112.1658680610105
 21
4.9499974473395554
 31
0.0
  0
LINE
  5
200D
  8
035
 62
     3
 10
-113.9283730895371
 20
3.569330080653637
 30
0.0
 11
-112.05710435663499
 21
5.4405988135557344
 31
0.0
  0
LINE
  5
200E
  8
035
 62
     3
 10
-114.1703111462936
 20
3.709229685737883
 30
0.0
 11
-111.9483406522596
 21
5.9312001797718974
 31
0.0
  0
LINE
  5
200F
  8
035
 62
     3
 10
-114.36616270988991
 20
3.895215783982362
 30
0.0
 11
-112.07148261026261
 21
6.1898958836096174
 31
0.0
  0
LINE
  5
2010
  8
035
 62
     3
 10
-114.3573369855183
 20
4.2858791701946659
 30
0.0
 11
-112.4533202721033
 21
6.1898958836096174
 31
0.0
  0
LINE
  5
2011
  8
035
 62
     3
 10
-115.8161015927078
 20
3.2089522248458899
 30
0.0
 11
-115.4454620195999
 21
3.579591797953773
 31
0.0
  0
LINE
  5
2012
  8
035
 62
     3
 10
-114.2485732811428
 20
4.7764805364108982
 30
0.0
 11
-112.8351579339441
 21
6.1898958836096174
 31
0.0
  0
LINE
  5
2013
  8
035
 62
     3
 10
-116.1979392545486
 20
3.2089522248458899
 30
0.0
 11
-115.66996513559231
 21
3.736926343802164
 31
0.0
  0
LINE
  5
2014
  8
035
 62
     3
 10
-114.13980957676731
 20
5.2670819026271278
 30
0.0
 11
-113.21699559578479
 21
6.1898958836096174
 31
0.0
  0
LINE
  5
2015
  8
035
 62
     3
 10
-116.57977691638931
 20
3.2089522248458899
 30
0.0
 11
-116.051802797433
 21
3.736926343802164
 31
0.0
  0
LINE
  5
2016
  8
035
 62
     3
 10
-114.0310458723919
 20
5.7576832688433246
 30
0.0
 11
-113.5988332576255
 21
6.1898958836096174
 31
0.0
  0
LINE
  5
2017
  8
035
 62
     3
 10
-116.96161457823
 20
3.2089522248458899
 30
0.0
 11
-116.4336404592737
 21
3.736926343802164
 31
0.0
  0
LINE
  5
2018
  8
035
 62
     3
 10
-115.6451298083263
 20
4.5254369947496196
 30
0.0
 11
-115.4782375280105
 21
4.6923292750653642
 31
0.0
  0
LINE
  5
2019
  8
035
 62
     3
 10
-117.3434522400708
 20
3.2089522248458899
 30
0.0
 11
-116.8154781211145
 21
3.736926343802164
 31
0.0
  0
LINE
  5
201A
  8
035
 62
     3
 10
-116.02696747016699
 20
4.5254369947496196
 30
0.0
 11
-115.67899335121071
 21
4.8734111137059379
 31
0.0
  0
LINE
  5
201B
  8
035
 62
     3
 10
-117.72528990191149
 20
3.2089522248458899
 30
0.0
 11
-117.1973157829552
 21
3.736926343802164
 31
0.0
  0
LINE
  5
201C
  8
035
 62
     3
 10
-115.2723203621041
 20
5.6619217646532229
 30
0.0
 11
-114.9016434977226
 21
6.0325986290348084
 31
0.0
  0
LINE
  5
201D
  8
035
 62
     3
 10
-116.4088051320078
 20
4.5254369947496196
 30
0.0
 11
-116.0608310130514
 21
4.8734111137059379
 31
0.0
  0
LINE
  5
201E
  8
035
 62
     3
 10
-118.1071275637522
 20
3.2089522248458899
 30
0.0
 11
-117.57915344479591
 21
3.736926343802164
 31
0.0
  0
LINE
  5
201F
  8
035
 62
     3
 10
-115.6541580239449
 20
5.6619217646532229
 30
0.0
 11
-115.12618390498849
 21
6.1898958836096174
 31
0.0
  0
LINE
  5
2020
  8
035
 62
     3
 10
-116.79064279384851
 20
4.5254369947496196
 30
0.0
 11
-116.4426686748922
 21
4.8734111137059379
 31
0.0
  0
LINE
  5
2021
  8
035
 62
     3
 10
-118.48896522559301
 20
3.2089522248458899
 30
0.0
 11
-117.9609911066367
 21
3.736926343802164
 31
0.0
  0
LINE
  5
2022
  8
035
 62
     3
 10
-116.03599568578569
 20
5.6619217646532229
 30
0.0
 11
-115.5080215668292
 21
6.1898958836096174
 31
0.0
  0
LINE
  5
2023
  8
035
 62
     3
 10
-117.1724804556892
 20
4.5254369947496196
 30
0.0
 11
-116.8245063367329
 21
4.8734111137059379
 31
0.0
  0
LINE
  5
2024
  8
035
 62
     3
 10
-118.8708028874337
 20
3.2089522248458899
 30
0.0
 11
-118.3428287684774
 21
3.736926343802164
 31
0.0
  0
LINE
  5
2025
  8
035
 62
     3
 10
-116.4178333476264
 20
5.6619217646532229
 30
0.0
 11
-115.88985922867001
 21
6.1898958836096174
 31
0.0
  0
LINE
  5
2026
  8
035
 62
     3
 10
-117.55431811753
 20
4.5254369947496196
 30
0.0
 11
-117.2063439985737
 21
4.8734111137059379
 31
0.0
  0
LINE
  5
2027
  8
035
 62
     3
 10
-119.2526405492744
 20
3.2089522248458899
 30
0.0
 11
-118.72466643031809
 21
3.736926343802164
 31
0.0
  0
LINE
  5
2028
  8
035
 62
     3
 10
-116.7996710094671
 20
5.6619217646532061
 30
0.0
 11
-116.2716968905107
 21
6.1898958836096174
 31
0.0
  0
LINE
  5
2029
  8
035
 62
     3
 10
-117.93615577937069
 20
4.5254369947496196
 30
0.0
 11
-117.58818166041441
 21
4.8734111137059379
 31
0.0
  0
LINE
  5
202A
  8
035
 62
     3
 10
-119.63447821111519
 20
3.2089522248458899
 30
0.0
 11
-118.9060021819818
 21
3.9374282539792231
 31
0.0
  0
LINE
  5
202B
  8
035
 62
     3
 10
-117.1815086713078
 20
5.6619217646532061
 30
0.0
 11
-116.6535345523514
 21
6.1898958836096174
 31
0.0
  0
LINE
  5
202C
  8
035
 62
     3
 10
-118.3179934412114
 20
4.5254369947496196
 30
0.0
 11
-117.9700193222551
 21
4.8734111137059379
 31
0.0
  0
LINE
  5
202D
  8
035
 62
     3
 10
-120.0163158729559
 20
3.2089522248458899
 30
0.0
 11
-118.7972384776065
 21
4.4280296201953337
 31
0.0
  0
LINE
  5
202E
  8
035
 62
     3
 10
-117.5633463331486
 20
5.6619217646532061
 30
0.0
 11
-117.03537221419219
 21
6.1898958836096174
 31
0.0
  0
LINE
  5
202F
  8
035
 62
     3
 10
-118.6998311030522
 20
4.5254369947496196
 30
0.0
 11
-118.3518569840958
 21
4.8734111137059379
 31
0.0
  0
LINE
  5
2030
  8
035
 62
     3
 10
-120.39815353479661
 20
3.2089522248458899
 30
0.0
 11
-118.68847477323111
 21
4.9186309864114293
 31
0.0
  0
LINE
  5
2031
  8
035
 62
     3
 10
-117.94518399498931
 20
5.6619217646532061
 30
0.0
 11
-117.4172098760329
 21
6.1898958836096174
 31
0.0
  0
LINE
  5
2032
  8
035
 62
     3
 10
-120.7799911966374
 20
3.2089522248458899
 30
0.0
 11
-118.5797110688555
 21
5.4092323526277619
 31
0.0
  0
LINE
  5
2033
  8
035
 62
     3
 10
-118.3270216568301
 20
5.6619217646532061
 30
0.0
 11
-117.79904753787361
 21
6.1898958836096174
 31
0.0
  0
LINE
  5
2034
  8
035
 62
     3
 10
-121.1041025890855
 20
3.266678494238564
 30
0.0
 11
-118.1808851997144
 21
6.1898958836096174
 31
0.0
  0
LINE
  5
2035
  8
035
 62
     3
 10
-120.99533888470999
 20
3.7572798604547608
 30
0.0
 11
-118.5627228615551
 21
6.1898958836096174
 31
0.0
  0
LINE
  5
2036
  8
035
 62
     3
 10
-120.8865751803345
 20
4.247881226670958
 30
0.0
 11
-118.94456052339579
 21
6.1898958836096174
 31
0.0
  0
LINE
  5
2037
  8
035
 62
     3
 10
-122.30734184400031
 20
3.2089522248458731
 30
0.0
 11
-122.09438908826191
 21
3.4219049805843289
 31
0.0
  0
LINE
  5
2038
  8
035
 62
     3
 10
-120.7778114759591
 20
4.738482592887137
 30
0.0
 11
-119.3263981852366
 21
6.1898958836096174
 31
0.0
  0
LINE
  5
2039
  8
035
 62
     3
 10
-122.6891795058411
 20
3.2089522248458731
 30
0.0
 11
-121.9856253838864
 21
3.912506346800543
 31
0.0
  0
LINE
  5
203A
  8
035
 62
     3
 10
-120.66904777158361
 20
5.2290839591033507
 30
0.0
 11
-119.7082358470773
 21
6.1898958836096174
 31
0.0
  0
LINE
  5
203B
  8
035
 62
     3
 10
-123.0710171676818
 20
3.2089522248458731
 30
0.0
 11
-121.8768616795109
 21
4.4031077130167571
 31
0.0
  0
LINE
  5
203C
  8
035
 62
     3
 10
-120.5602840672082
 20
5.7196853253195483
 30
0.0
 11
-120.090073508918
 21
6.1898958836096174
 31
0.0
  0
LINE
  5
203D
  8
035
 62
     3
 10
-123.45285482952249
 20
3.2089522248458731
 30
0.0
 11
-121.7680979751354
 21
4.893709079232953
 31
0.0
  0
LINE
  5
203E
  8
035
 62
     3
 10
-123.8346924913633
 20
3.2089522248458731
 30
0.0
 11
-121.65933427076
 21
5.3843104454491497
 31
0.0
  0
LINE
  5
203F
  8
035
 62
     3
 10
-124.216530153204
 20
3.2089522248458731
 30
0.0
 11
-121.55057056638449
 21
5.8749118116653651
 31
0.0
  0
LINE
  5
2040
  8
035
 62
     3
 10
-124.53779589722249
 20
3.2695241426681458
 30
0.0
 11
-121.617424156281
 21
6.1898958836096174
 31
0.0
  0
LINE
  5
2041
  8
035
 62
     3
 10
-124.73880827529629
 20
3.4503494264350341
 30
0.0
 11
-121.9992618181217
 21
6.1898958836096174
 31
0.0
  0
LINE
  5
2042
  8
035
 62
     3
 10
-124.93982065337021
 20
3.6311747102019201
 30
0.0
 11
-122.3810994799625
 21
6.1898958836096174
 31
0.0
  0
LINE
  5
2043
  8
035
 62
     3
 10
-125.140833031444
 20
3.8119999939688078
 30
0.0
 11
-123.964738004376
 21
4.9880950210368242
 31
0.0
  0
LINE
  5
2044
  8
035
 62
     3
 10
-123.7486709734882
 20
5.2041620519246381
 30
0.0
 11
-122.76293714180321
 21
6.1898958836096174
 31
0.0
  0
LINE
  5
2045
  8
035
 62
     3
 10
-125.3418454095179
 20
3.9928252777356952
 30
0.0
 11
-124.188867265826
 21
5.1458034214275887
 31
0.0
  0
LINE
  5
2046
  8
035
 62
     3
 10
-123.6399072691127
 20
5.6947634181409033
 30
0.0
 11
-123.1447748036439
 21
6.1898958836096174
 31
0.0
  0
LINE
  5
2047
  8
035
 62
     3
 10
-125.5428577875917
 20
4.1736505615026003
 30
0.0
 11
-124.41299652727589
 21
5.303511821818371
 31
0.0
  0
LINE
  5
2048
  8
035
 62
     3
 10
-123.53114356473711
 20
6.1853647843571498
 30
0.0
 11
-123.5266124654847
 21
6.1898958836096174
 31
0.0
  0
LINE
  5
2049
  8
035
 62
     3
 10
-126.8893937860892
 20
3.2089522248458562
 30
0.0
 11
-126.65397945419581
 21
3.4443665567392281
 31
0.0
  0
LINE
  5
204A
  8
035
 62
     3
 10
-125.7438701656655
 20
4.3544758452694881
 30
0.0
 11
-124.6371257887259
 21
5.461220222209155
 31
0.0
  0
LINE
  5
204B
  8
035
 62
     3
 10
-127.27123144792991
 20
3.2089522248458562
 30
0.0
 11
-126.5452157498203
 21
3.9349679229554591
 31
0.0
  0
LINE
  5
204C
  8
035
 62
     3
 10
-125.9448825437394
 20
4.5353011290363741
 30
0.0
 11
-124.8612550501758
 21
5.6189286225999204
 31
0.0
  0
LINE
  5
204D
  8
035
 62
     3
 10
-127.6530691097707
 20
3.2089522248458562
 30
0.0
 11
-126.4364520454448
 21
4.4255692891716558
 31
0.0
  0
LINE
  5
204E
  8
035
 62
     3
 10
-126.14589492181319
 20
4.7161264128032618
 30
0.0
 11
-125.0853843116258
 21
5.7766370229907027
 31
0.0
  0
LINE
  5
204F
  8
035
 62
     3
 10
-128.03490677161139
 20
3.2089522248458562
 30
0.0
 11
-125.3095135730758
 21
5.9343454233814681
 31
0.0
  0
LINE
  5
2050
  8
035
 62
     3
 10
-128.4167444334521
 20
3.2089522248458562
 30
0.0
 11
-125.53364283452569
 21
6.0920538237722521
 31
0.0
  0
LINE
  5
2051
  8
035
 62
     3
 10
-128.7433161569239
 20
3.264218163214835
 30
0.0
 11
-125.81763843652909
 21
6.1898958836096174
 31
0.0
  0
LINE
  5
2052
  8
035
 62
     3
 10
-128.63455245254841
 20
3.7548195294310309
 30
0.0
 11
-126.1994760983699
 21
6.1898958836096174
 31
0.0
  0
LINE
  5
2053
  8
035
 62
     3
 10
-128.52578874817289
 20
4.2454208956472277
 30
0.0
 11
-126.58131376021061
 21
6.1898958836096174
 31
0.0
  0
LINE
  5
2054
  8
035
 62
     3
 10
-128.41702504379751
 20
4.7360222618634422
 30
0.0
 11
-126.9631514220513
 21
6.1898958836096174
 31
0.0
  0
LINE
  5
2055
  8
035
 62
     3
 10
-128.30826133942199
 20
5.2266236280796381
 30
0.0
 11
-127.344989083892
 21
6.1898958836096174
 31
0.0
  0
LINE
  5
2056
  8
035
 62
     3
 10
-128.1994976350465
 20
5.7172249942958517
 30
0.0
 11
-127.72682674573279
 21
6.1898958836096174
 31
0.0
  0
LINE
  5
2057
  8
035
 62
     3
 10
-97.903699578351905
 20
4.3204971182094676
 30
0.0
 11
-97.555725459395532
 21
4.6684712371658197
 31
0.0
  0
LINE
  5
2058
  8
035
 62
     3
 10
-96.648442835575366
 20
5.575753860986012
 30
0.0
 11
-96.034300812951713
 21
6.1898958836096334
 31
0.0
  0
LINE
  5
2059
  8
035
 62
     3
 10
-97.521861916511156
 20
4.3204971182094676
 30
0.0
 11
-97.173345922406455
 21
4.669013112314186
 31
0.0
  0
LINE
  5
205A
  8
035
 62
     3
 10
-96.552348589357834
 20
5.2900104453627836
 30
0.0
 11
-95.652463151111007
 21
6.1898958836096334
 31
0.0
  0
LINE
  5
205B
  8
035
 62
     3
 10
-97.140928361274021
 20
4.3195930116058694
 30
0.0
 11
-95.270829982268765
 21
6.1896913906111326
 31
0.0
  0
LINE
  5
205C
  8
035
 62
     3
 10
-96.931816425032622
 20
4.1468672860065077
 30
0.0
 11
-94.929703162999743
 21
6.1489805480393862
 31
0.0
  0
LINE
  5
205D
  8
035
 62
     3
 10
-96.95283509237818
 20
3.744010956820258
 30
0.0
 11
-94.646299004069519
 21
6.0505470451288854
 31
0.0
  0
LINE
  5
205E
  8
035
 62
     3
 10
-96.962121863985502
 20
3.3528865233721681
 30
0.0
 11
-94.418345581340859
 21
5.8966628060168338
 31
0.0
  0
LINE
  5
205F
  8
035
 62
     3
 10
-96.724218500671157
 20
3.2089522248458051
 30
0.0
 11
-94.267355379022163
 21
5.6658153464947949
 31
0.0
  0
LINE
  5
2060
  8
035
 62
     3
 10
-96.342380838830422
 20
3.2089522248458051
 30
0.0
 11
-95.022979772043726
 21
4.5283532916325013
 31
0.0
  0
LINE
  5
2061
  8
035
 62
     3
 10
-94.969135470699968
 20
4.5821975929762484
 30
0.0
 11
-94.287360214694175
 21
5.263972848982049
 31
0.0
  0
LINE
  5
2062
  8
035
 62
     3
 10
-95.960543176989688
 20
3.2089522248458051
 30
0.0
 11
-94.873526014076333
 21
4.2959693877591141
 31
0.0
  0
LINE
  5
2063
  8
035
 62
     3
 10
-93.333355914920759
 20
5.8361394869147123
 30
0.0
 11
-92.979599518225925
 21
6.1898958836095481
 31
0.0
  0
LINE
  5
2064
  8
035
 62
     3
 10
-95.578705515148926
 20
3.2089522248458051
 30
0.0
 11
-94.892504867759584
 21
3.8951528722351858
 31
0.0
  0
LINE
  5
2065
  8
035
 62
     3
 10
-93.44211961929625
 20
5.3455381206985146
 30
0.0
 11
-92.597761856385176
 21
6.1898958836095481
 31
0.0
  0
LINE
  5
2066
  8
035
 62
     3
 10
-95.19686785330822
 20
3.2089522248458051
 30
0.0
 11
-94.919803156182667
 21
3.4860169219713582
 31
0.0
  0
LINE
  5
2067
  8
035
 62
     3
 10
-93.550883323671698
 20
4.8549367544823001
 30
0.0
 11
-92.215924194544471
 21
6.1898958836095481
 31
0.0
  0
LINE
  5
2068
  8
035
 62
     3
 10
-93.659647028047175
 20
4.3643353882660874
 30
0.0
 11
-91.834086532703722
 21
6.1898958836095481
 31
0.0
  0
LINE
  5
2069
  8
035
 62
     3
 10
-93.768410732422666
 20
3.8737340220498728
 30
0.0
 11
-91.452248870862974
 21
6.1898958836095481
 31
0.0
  0
LINE
  5
206A
  8
035
 62
     3
 10
-93.877174436798128
 20
3.3831326558336601
 30
0.0
 11
-91.244019212192654
 21
6.0162878804391386
 31
0.0
  0
LINE
  5
206B
  8
035
 62
     3
 10
-93.669517205945255
 20
3.2089522248458051
 30
0.0
 11
-91.352782916568117
 21
5.5256865142229419
 31
0.0
  0
LINE
  5
206C
  8
035
 62
     3
 10
-93.287679544104535
 20
3.2089522248458051
 30
0.0
 11
-91.461546620943594
 21
5.0350851480067291
 31
0.0
  0
LINE
  5
206D
  8
035
 62
     3
 10
-92.905841882263786
 20
3.2089522248458051
 30
0.0
 11
-91.57031032531907
 21
4.5444837817905324
 31
0.0
  0
LINE
  5
206E
  8
035
 62
     3
 10
-90.014354965324884
 20
6.1004391417847073
 30
0.0
 11
-89.924898223499994
 21
6.1898958836095819
 31
0.0
  0
LINE
  5
206F
  8
035
 62
     3
 10
-92.524004220423038
 20
3.2089522248458051
 30
0.0
 11
-91.679074029694505
 21
4.0538824155743178
 31
0.0
  0
LINE
  5
2070
  8
035
 62
     3
 10
-90.123118669700347
 20
5.6098377755684927
 30
0.0
 11
-89.543060561659246
 21
6.1898958836095819
 31
0.0
  0
LINE
  5
2071
  8
035
 62
     3
 10
-92.142166558582275
 20
3.2089522248458051
 30
0.0
 11
-91.787837734069996
 21
3.5632810493581211
 31
0.0
  0
LINE
  5
2072
  8
035
 62
     3
 10
-90.231882374075823
 20
5.1192364093522631
 30
0.0
 11
-89.161222899818554
 21
6.1898958836095819
 31
0.0
  0
LINE
  5
2073
  8
035
 62
     3
 10
-90.340646078451286
 20
4.6286350431360663
 30
0.0
 11
-88.779385237977777
 21
6.1898958836095819
 31
0.0
  0
LINE
  5
2074
  8
035
 62
     3
 10
-90.449409782826805
 20
4.1380336769198509
 30
0.0
 11
-88.397547576137043
 21
6.1898958836095819
 31
0.0
  0
LINE
  5
2075
  8
035
 62
     3
 10
-90.558173487202282
 20
3.6474323107036208
 30
0.0
 11
-88.04470713644244
 21
6.1608986614634862
 31
0.0
  0
LINE
  5
2076
  8
035
 62
     3
 10
-90.614815911219367
 20
3.2089522248457878
 30
0.0
 11
-88.153470840817874
 21
5.6702972952473054
 31
0.0
  0
LINE
  5
2077
  8
035
 62
     3
 10
-90.232978249378647
 20
3.2089522248457878
 30
0.0
 11
-88.259173978565173
 21
5.1827564956592731
 31
0.0
  0
LINE
  5
2078
  8
035
 62
     3
 10
-89.851140587537927
 20
3.2089522248457878
 30
0.0
 11
-87.593799393000864
 21
5.4662934193828363
 31
0.0
  0
LINE
  5
2079
  8
035
 62
     3
 10
-89.469302925697164
 20
3.2089522248457878
 30
0.0
 11
-86.928424807436556
 21
5.7498303431063977
 31
0.0
  0
LINE
  5
207A
  8
035
 62
     3
 10
-89.087465263856444
 20
3.2089522248457878
 30
0.0
 11
-88.588525658319895
 21
3.7078918303823309
 31
0.0
  0
LINE
  5
207B
  8
035
 62
     3
 10
-88.199885477682315
 20
4.0965320110198906
 30
0.0
 11
-86.263050221872263
 21
6.0333672668299778
 31
0.0
  0
LINE
  5
207C
  8
035
 62
     3
 10
-88.705627602015682
 20
3.2089522248457878
 30
0.0
 11
-88.697289362695287
 21
3.2172904641661679
 31
0.0
  0
LINE
  5
207D
  8
035
 62
     3
 10
-87.623879329111617
 20
4.2907004977498691
 30
0.0
 11
-85.724683943251932
 21
6.189895883609565
 31
0.0
  0
LINE
  5
207E
  8
035
 62
     3
 10
-87.434244541137247
 20
4.0984976238835173
 30
0.0
 11
-85.342846281411184
 21
6.189895883609565
 31
0.0
  0
LINE
  5
207F
  8
035
 62
     3
 10
-87.244609753162877
 20
3.906294750017147
 30
0.0
 11
-84.961008619570464
 21
6.189895883609565
 31
0.0
  0
LINE
  5
2080
  8
035
 62
     3
 10
-87.054974965188535
 20
3.7140918761507771
 30
0.0
 11
-85.648259833080488
 21
5.1208070082587964
 31
0.0
  0
LINE
  5
2081
  8
035
 62
     3
 10
-85.538387135425126
 20
5.2306797059141577
 30
0.0
 11
-84.57917095772973
 21
6.189895883609565
 31
0.0
  0
LINE
  5
2082
  8
035
 62
     3
 10
-86.865340177214165
 20
3.521889002284408
 30
0.0
 11
-85.458625045106118
 21
4.9286041343924261
 31
0.0
  0
LINE
  5
2083
  8
035
 62
     3
 10
-84.873012549860846
 20
5.5142166296377031
 30
0.0
 11
-84.197333295888996
 21
6.189895883609565
 31
0.0
  0
LINE
  5
2084
  8
035
 62
     3
 10
-86.675705389239781
 20
3.329686128418055
 30
0.0
 11
-85.268990257131748
 21
4.7364012605260557
 31
0.0
  0
LINE
  5
2085
  8
035
 62
     3
 10
-84.207637964296552
 20
5.7977535533612494
 30
0.0
 11
-83.815495634048219
 21
6.189895883609565
 31
0.0
  0
LINE
  5
2086
  8
035
 62
     3
 10
-86.414601630971276
 20
3.2089522248458051
 30
0.0
 11
-85.079355469157363
 21
4.5441983866597031
 31
0.0
  0
LINE
  5
2087
  8
035
 62
     3
 10
-83.542263378732287
 20
6.081290477084794
 30
0.0
 11
-83.433657972207527
 21
6.189895883609565
 31
0.0
  0
LINE
  5
2088
  8
035
 62
     3
 10
-86.032763969130585
 20
3.2089522248458051
 30
0.0
 11
-84.889720681183036
 21
4.3519955127933336
 31
0.0
  0
LINE
  5
2089
  8
035
 62
     3
 10
-85.650926307289836
 20
3.2089522248458051
 30
0.0
 11
-84.700085893208652
 21
4.159792638926981
 31
0.0
  0
LINE
  5
208A
  8
035
 62
     3
 10
-85.269088645449074
 20
3.2089522248458051
 30
0.0
 11
-84.510451105234267
 21
3.9675897650606111
 31
0.0
  0
LINE
  5
208B
  8
035
 62
     3
 10
-84.88725098360834
 20
3.2089522248458051
 30
0.0
 11
-84.320816317259897
 21
3.7753868911942421
 31
0.0
  0
LINE
  5
208C
  8
035
 62
     3
 10
-84.505413321767634
 20
3.2089522248458051
 30
0.0
 11
-84.131181529285513
 21
3.583184017327889
 31
0.0
  0
LINE
  5
208D
  8
035
 62
     3
 10
-84.123575659926871
 20
3.2089522248458051
 30
0.0
 11
-83.941546741311143
 21
3.3909811434615191
 31
0.0
  0
LINE
  5
208E
  8
035
 62
     3
 10
-96.613061305663678
 20
3.2089522248458051
 30
0.0
 11
-96.965390148354302
 21
3.5612810675364441
 31
0.0
  0
LINE
  5
208F
  8
035
 62
     3
 10
-98.675261856174089
 20
5.2711527753562084
 30
0.0
 11
-99.594004964427455
 21
6.1898958836096334
 31
0.0
  0
LINE
  5
2090
  8
035
 62
     3
 10
-97.72460619902732
 20
4.3204971182094676
 30
0.0
 11
-98.07258031798365
 21
4.6684712371658197
 31
0.0
  0
LINE
  5
2091
  8
035
 62
     3
 10
-98.106443860868026
 20
4.3204971182094676
 30
0.0
 11
-98.454417979824399
 21
4.6684712371658197
 31
0.0
  0
LINE
  5
2092
  8
035
 62
     3
 10
-98.744551977686982
 20
4.9586052350283722
 30
0.0
 11
-99.975842626268175
 21
6.1898958836096334
 31
0.0
  0
LINE
  5
2093
  8
035
 62
     3
 10
-98.488281522708803
 20
4.3204971182094676
 30
0.0
 11
-100.3576802881089
 21
6.1898958836096334
 31
0.0
  0
LINE
  5
2094
  8
035
 62
     3
 10
-98.870119184549523
 20
4.3204971182094676
 30
0.0
 11
-100.5606371063987
 21
6.0110150400586599
 31
0.0
  0
LINE
  5
2095
  8
035
 62
     3
 10
-98.952422342225574
 20
4.0209626140447794
 30
0.0
 11
-100.62992722791159
 21
5.69846749973079
 31
0.0
  0
LINE
  5
2096
  8
035
 62
     3
 10
-99.021712463738425
 20
3.708415073716909
 30
0.0
 11
-100.6992173494245
 21
5.3859199594029361
 31
0.0
  0
LINE
  5
2097
  8
035
 62
     3
 10
-101.2329689039609
 20
5.9196715139393881
 30
0.0
 11
-101.5031932736311
 21
6.1898958836096334
 31
0.0
  0
LINE
  5
2098
  8
035
 62
     3
 10
-99.091002585251275
 20
3.3958675333890391
 30
0.0
 11
-100.76850747093729
 21
5.0733724190750671
 31
0.0
  0
LINE
  5
2099
  8
035
 62
     3
 10
-101.3022590254737
 20
5.6071239736115022
 30
0.0
 11
-101.8850309354718
 21
6.1898958836096334
 31
0.0
  0
LINE
  5
209A
  8
035
 62
     3
 10
-99.285924938548845
 20
3.2089522248457878
 30
0.0
 11
-100.8377975924502
 21
4.7608248787471812
 31
0.0
  0
LINE
  5
209B
  8
035
 62
     3
 10
-101.5216326826216
 20
5.444659968918617
 30
0.0
 11
-102.26686859731259
 21
6.1898958836096334
 31
0.0
  0
LINE
  5
209C
  8
035
 62
     3
 10
-99.667762600389565
 20
3.2089522248457878
 30
0.0
 11
-100.90708771396309
 21
4.4482773384193113
 31
0.0
  0
LINE
  5
209D
  8
035
 62
     3
 10
-101.90347034446241
 20
5.444659968918617
 30
0.0
 11
-102.6487062591533
 21
6.1898958836096334
 31
0.0
  0
LINE
  5
209E
  8
035
 62
     3
 10
-100.0496002622303
 20
3.2089522248457878
 30
0.0
 11
-100.9763778354759
 21
4.1357297980914582
 31
0.0
  0
LINE
  5
209F
  8
035
 62
     3
 10
-102.2853080063031
 20
5.444659968918617
 30
0.0
 11
-103.03054392099411
 21
6.1898958836096334
 31
0.0
  0
LINE
  5
20A0
  8
035
 62
     3
 10
-100.43143792407101
 20
3.2089522248457878
 30
0.0
 11
-101.04566795698879
 21
3.8231822577635879
 31
0.0
  0
LINE
  5
20A1
  8
035
 62
     3
 10
-102.6671456681438
 20
5.444659968918617
 30
0.0
 11
-103.4123815828348
 21
6.1898958836096334
 31
0.0
  0
LINE
  5
20A2
  8
035
 62
     3
 10
-100.8132755859117
 20
3.2089522248457878
 30
0.0
 11
-101.1149580785017
 21
3.5106347174357349
 31
0.0
  0
LINE
  5
20A3
  8
035
 62
     3
 10
-103.04898332998459
 20
5.444659968918617
 30
0.0
 11
-103.7942192446755
 21
6.1898958836096334
 31
0.0
  0
LINE
  5
20A4
  8
035
 62
     3
 10
-103.3192544181603
 20
5.3330933952536181
 30
0.0
 11
-104.17605690651629
 21
6.1898958836096334
 31
0.0
  0
LINE
  5
20A5
  8
035
 62
     3
 10
-103.38854453967321
 20
5.020545854925782
 30
0.0
 11
-104.557894568357
 21
6.1898958836096334
 31
0.0
  0
LINE
  5
20A6
  8
035
 62
     3
 10
-103.457834661186
 20
4.7079983145979289
 30
0.0
 11
-104.93973223019771
 21
6.1898958836096334
 31
0.0
  0
LINE
  5
20A7
  8
035
 62
     3
 10
-103.527124782699
 20
4.3954507742700759
 30
0.0
 11
-105.3215698920385
 21
6.1898958836096334
 31
0.0
  0
LINE
  5
20A8
  8
035
 62
     3
 10
-103.5964149042118
 20
4.0829032339422406
 30
0.0
 11
-105.7034075538792
 21
6.1898958836096334
 31
0.0
  0
LINE
  5
20A9
  8
035
 62
     3
 10
-103.66570502572471
 20
3.7703556936143361
 30
0.0
 11
-106.08524521571999
 21
6.1898958836096334
 31
0.0
  0
LINE
  5
20AA
  8
035
 62
     3
 10
-103.7349951472376
 20
3.4578081532865008
 30
0.0
 11
-105.4125000329236
 21
5.1353130389724777
 31
0.0
  0
LINE
  5
20AB
  8
035
 62
     3
 10
-105.72184696286971
 20
5.444659968918617
 30
0.0
 11
-106.4670828775607
 21
6.1898958836096334
 31
0.0
  0
LINE
  5
20AC
  8
035
 62
     3
 10
-103.8679768806377
 20
3.2089522248458562
 30
0.0
 11
-105.4817901544364
 21
4.8227654986446247
 31
0.0
  0
LINE
  5
20AD
  8
035
 62
     3
 10
-106.1036846247104
 20
5.444659968918617
 30
0.0
 11
-106.8489205394014
 21
6.1898958836096334
 31
0.0
  0
LINE
  5
20AE
  8
035
 62
     3
 10
-104.2498145424784
 20
3.2089522248458562
 30
0.0
 11
-105.5510802759493
 21
4.5102179583167716
 31
0.0
  0
LINE
  5
20AF
  8
035
 62
     3
 10
-106.4855222865511
 20
5.444659968918617
 30
0.0
 11
-107.076084717482
 21
6.035222399849518
 31
0.0
  0
LINE
  5
20B0
  8
035
 62
     3
 10
-104.6316522043191
 20
3.2089522248458562
 30
0.0
 11
-105.6203703974622
 21
4.1976704179889186
 31
0.0
  0
LINE
  5
20B1
  8
035
 62
     3
 10
-107.5893144275359
 20
6.1666144480626341
 30
0.0
 11
-107.6125958630829
 21
6.1898958836096174
 31
0.0
  0
LINE
  5
20B2
  8
035
 62
     3
 10
-106.86735994839189
 20
5.444659968918617
 30
0.0
 11
-107.1453748389949
 21
5.722674859521649
 31
0.0
  0
LINE
  5
20B3
  8
035
 62
     3
 10
-105.0134898661599
 20
3.2089522248458562
 30
0.0
 11
-105.6896605189751
 21
3.8851228776610149
 31
0.0
  0
LINE
  5
20B4
  8
035
 62
     3
 10
-107.6586045490488
 20
5.8540669077347474
 30
0.0
 11
-107.99443352492359
 21
6.1898958836096174
 31
0.0
  0
LINE
  5
20B5
  8
035
 62
     3
 10
-105.39532752800061
 20
3.2089522248458562
 30
0.0
 11
-105.7589506404879
 21
3.5725753373331619
 31
0.0
  0
LINE
  5
20B6
  8
035
 62
     3
 10
-107.7278946705616
 20
5.5415193674068943
 30
0.0
 11
-108.3762711867644
 21
6.1898958836096174
 31
0.0
  0
LINE
  5
20B7
  8
035
 62
     3
 10
-105.7771651898414
 20
3.2089522248458562
 30
0.0
 11
-105.8282407620008
 21
3.2600277970053089
 31
0.0
  0
LINE
  5
20B8
  8
035
 62
     3
 10
-107.7971847920745
 20
5.2289718270790413
 30
0.0
 11
-108.7581088486051
 21
6.1898958836096174
 31
0.0
  0
LINE
  5
20B9
  8
035
 62
     3
 10
-107.8664749135874
 20
4.9164242867511891
 30
0.0
 11
-109.1399465104458
 21
6.1898958836096174
 31
0.0
  0
LINE
  5
20BA
  8
035
 62
     3
 10
-107.9357650351003
 20
4.6038767464233361
 30
0.0
 11
-109.5217841722865
 21
6.1898958836096174
 31
0.0
  0
LINE
  5
20BB
  8
035
 62
     3
 10
-108.0050551566132
 20
4.2913292060954493
 30
0.0
 11
-109.67832134521829
 21
5.9645953947005381
 31
0.0
  0
LINE
  5
20BC
  8
035
 62
     3
 10
-108.074345278126
 20
3.9787816657675958
 30
0.0
 11
-109.7476114667311
 21
5.6520478543727011
 31
0.0
  0
LINE
  5
20BD
  8
035
 62
     3
 10
-108.23186537987149
 20
3.7544641056723922
 30
0.0
 11
-109.81690158824399
 21
5.3395003140448489
 31
0.0
  0
LINE
  5
20BE
  8
035
 62
     3
 10
-108.4674968942431
 20
3.608257958203168
 30
0.0
 11
-109.8861917097569
 21
5.0269527737170128
 31
0.0
  0
LINE
  5
20BF
  8
035
 62
     3
 10
-108.7252521362114
 20
3.4841755383307969
 30
0.0
 11
-109.95548183126979
 21
4.7144052333891766
 31
0.0
  0
LINE
  5
20C0
  8
035
 62
     3
 10
-109.0078270096099
 20
3.3849127498884708
 30
0.0
 11
-110.0247719527827
 21
4.4018576930612898
 31
0.0
  0
LINE
  5
20C1
  8
035
 62
     3
 10
-109.3102160670833
 20
3.305464145521201
 30
0.0
 11
-110.1459810757661
 21
4.1412291542039412
 31
0.0
  0
LINE
  5
20C2
  8
035
 62
     3
 10
-111.94609256548139
 20
5.9413406439192524
 30
0.0
 11
-112.1946478051717
 21
6.1898958836096174
 31
0.0
  0
LINE
  5
20C3
  8
035
 62
     3
 10
-109.6270622842185
 20
3.240472700815606
 30
0.0
 11
-110.38182420883339
 21
3.9952346254305739
 31
0.0
  0
LINE
  5
20C4
  8
035
 62
     3
 10
-112.0153826869942
 20
5.6287931035913816
 30
0.0
 11
-112.5764854670125
 21
6.1898958836096174
 31
0.0
  0
LINE
  5
20C5
  8
035
 62
     3
 10
-109.9600312549295
 20
3.1916040096859288
 30
0.0
 11
-110.67554994914551
 21
3.907122703901885
 31
0.0
  0
LINE
  5
20C6
  8
035
 62
     3
 10
-112.08467280850709
 20
5.3162455632635117
 30
0.0
 11
-112.95832312885319
 21
6.1898958836096174
 31
0.0
  0
LINE
  5
20C7
  8
035
 62
     3
 10
-110.306216975018
 20
3.1559520679337161
 30
0.0
 11
-111.01583304788799
 21
3.8655681408037328
 31
0.0
  0
LINE
  5
20C8
  8
035
 62
     3
 10
-112.15396293002
 20
5.0036980229356418
 30
0.0
 11
-113.340160790694
 21
6.1898958836096174
 31
0.0
  0
LINE
  5
20C9
  8
035
 62
     3
 10
-110.66310066100689
 20
3.1309980920817821
 30
0.0
 11
-111.4029055697653
 21
3.8708030008402909
 31
0.0
  0
LINE
  5
20CA
  8
035
 62
     3
 10
-112.22325305153279
 20
4.691150482607739
 30
0.0
 11
-113.72199845253471
 21
6.1898958836096174
 31
0.0
  0
LINE
  5
20CB
  8
035
 62
     3
 10
-111.0316546162849
 20
3.1177143855190388
 30
0.0
 11
-111.87645555302009
 21
3.9625153222543159
 31
0.0
  0
LINE
  5
20CC
  8
035
 62
     3
 10
-112.2925431730457
 20
4.3786029422798523
 30
0.0
 11
-113.96582333838479
 21
6.0518831076190533
 31
0.0
  0
LINE
  5
20CD
  8
035
 62
     3
 10
-111.41305497107101
 20
3.1172770784644541
 30
0.0
 11
-114.0351134598977
 21
5.7393355672912012
 31
0.0
  0
LINE
  5
20CE
  8
035
 62
     3
 10
-111.8087459043527
 20
3.131130349905427
 30
0.0
 11
-114.10440358141059
 21
5.4267880269633473
 31
0.0
  0
LINE
  5
20CF
  8
035
 62
     3
 10
-114.866905802177
 20
6.1892902477297378
 30
0.0
 11
-114.86751143805689
 21
6.1898958836096174
 31
0.0
  0
LINE
  5
20D0
  8
035
 62
     3
 10
-112.2205328597373
 20
3.1610796434493378
 30
0.0
 11
-114.1736937029235
 21
5.1142404866354951
 31
0.0
  0
LINE
  5
20D1
  8
035
 62
     3
 10
-114.93619592368989
 20
5.8767427074019016
 30
0.0
 11
-115.2493490998976
 21
6.1898958836096174
 31
0.0
  0
LINE
  5
20D2
  8
035
 62
     3
 10
-112.6513507175187
 20
3.2100598393899218
 30
0.0
 11
-114.24298382443629
 21
4.8016929463075906
 31
0.0
  0
LINE
  5
20D3
  8
035
 62
     3
 10
-115.103212642782
 20
5.6619217646532229
 30
0.0
 11
-115.63118676173841
 21
6.1898958836096174
 31
0.0
  0
LINE
  5
20D4
  8
035
 62
     3
 10
-113.11943676931431
 20
3.296308229344779
 30
0.0
 11
-114.3122739459492
 21
4.4891454059797384
 31
0.0
  0
LINE
  5
20D5
  8
035
 62
     3
 10
-115.4850503046227
 20
5.6619217646532229
 30
0.0
 11
-116.0130244235791
 21
6.1898958836096174
 31
0.0
  0
LINE
  5
20D6
  8
035
 62
     3
 10
-113.6532843618162
 20
3.4483181600059392
 30
0.0
 11
-114.38156406746209
 21
4.1765978656518854
 31
0.0
  0
LINE
  5
20D7
  8
035
 62
     3
 10
-115.86688796646339
 20
5.6619217646532229
 30
0.0
 11
-116.3948620854198
 21
6.1898958836096174
 31
0.0
  0
LINE
  5
20D8
  8
035
 62
     3
 10
-115.44210707597119
 20
4.8553032123202771
 30
0.0
 11
-115.4602149773569
 21
4.8734111137059379
 31
0.0
  0
LINE
  5
20D9
  8
035
 62
     3
 10
-116.2487256283041
 20
5.6619217646532229
 30
0.0
 11
-116.77669974726059
 21
6.1898958836096174
 31
0.0
  0
LINE
  5
20DA
  8
035
 62
     3
 10
-115.5113971974841
 20
4.542755671992424
 30
0.0
 11
-115.8420526391976
 21
4.8734111137059379
 31
0.0
  0
LINE
  5
20DB
  8
035
 62
     3
 10
-116.63056329014491
 20
5.6619217646532229
 30
0.0
 11
-117.1585374091013
 21
6.1898958836096174
 31
0.0
  0
LINE
  5
20DC
  8
035
 62
     3
 10
-115.87591618208199
 20
4.5254369947496196
 30
0.0
 11
-116.2238903010383
 21
4.8734111137059379
 31
0.0
  0
LINE
  5
20DD
  8
035
 62
     3
 10
-117.0124009519857
 20
5.6619217646532229
 30
0.0
 11
-117.5403750709421
 21
6.1898958836096174
 31
0.0
  0
LINE
  5
20DE
  8
035
 62
     3
 10
-115.4212267742799
 20
3.6889099251068131
 30
0.0
 11
-115.4692431929753
 21
3.736926343802164
 31
0.0
  0
LINE
  5
20DF
  8
035
 62
     3
 10
-117.3942386138264
 20
5.6619217646532229
 30
0.0
 11
-117.9222127327828
 21
6.1898958836096174
 31
0.0
  0
LINE
  5
20E0
  8
035
 62
     3
 10
-116.2577538439228
 20
4.5254369947496196
 30
0.0
 11
-116.6057279628791
 21
4.8734111137059379
 31
0.0
  0
LINE
  5
20E1
  8
035
 62
     3
 10
-115.49051689579279
 20
3.3763623847789761
 30
0.0
 11
-115.8510808548161
 21
3.736926343802164
 31
0.0
  0
LINE
  5
20E2
  8
035
 62
     3
 10
-117.77607627566709
 20
5.6619217646532229
 30
0.0
 11
-118.3040503946235
 21
6.1898958836096174
 31
0.0
  0
LINE
  5
20E3
  8
035
 62
     3
 10
-116.63959150576351
 20
4.5254369947496196
 30
0.0
 11
-116.98756562471981
 21
4.8734111137059379
 31
0.0
  0
LINE
  5
20E4
  8
035
 62
     3
 10
-115.7049443977005
 20
3.2089522248458899
 30
0.0
 11
-116.2329185166568
 21
3.736926343802164
 31
0.0
  0
LINE
  5
20E5
  8
035
 62
     3
 10
-118.1579139375078
 20
5.6619217646532061
 30
0.0
 11
-118.68588805646419
 21
6.1898958836096174
 31
0.0
  0
LINE
  5
20E6
  8
035
 62
     3
 10
-117.0214291676042
 20
4.5254369947496196
 30
0.0
 11
-117.3694032865606
 21
4.8734111137059379
 31
0.0
  0
LINE
  5
20E7
  8
035
 62
     3
 10
-116.08678205954121
 20
3.2089522248458899
 30
0.0
 11
-116.6147561784975
 21
3.736926343802164
 31
0.0
  0
LINE
  5
20E8
  8
035
 62
     3
 10
-118.52660557773071
 20
5.6487757430353627
 30
0.0
 11
-119.067725718305
 21
6.1898958836096174
 31
0.0
  0
LINE
  5
20E9
  8
035
 62
     3
 10
-117.403266829445
 20
4.5254369947496196
 30
0.0
 11
-117.7512409484013
 21
4.8734111137059379
 31
0.0
  0
LINE
  5
20EA
  8
035
 62
     3
 10
-116.468619721382
 20
3.2089522248458899
 30
0.0
 11
-116.99659384033821
 21
3.736926343802164
 31
0.0
  0
LINE
  5
20EB
  8
035
 62
     3
 10
-118.5958956992436
 20
5.3362282027075114
 30
0.0
 11
-119.4495633801457
 21
6.1898958836096174
 31
0.0
  0
LINE
  5
20EC
  8
035
 62
     3
 10
-117.78510449128569
 20
4.5254369947496196
 30
0.0
 11
-118.13307861024199
 21
4.8734111137059379
 31
0.0
  0
LINE
  5
20ED
  8
035
 62
     3
 10
-116.8504573832227
 20
3.2089522248458899
 30
0.0
 11
-117.378431502179
 21
3.736926343802164
 31
0.0
  0
LINE
  5
20EE
  8
035
 62
     3
 10
-118.66518582075661
 20
5.0236806623796921
 30
0.0
 11
-119.8314010419865
 21
6.1898958836096174
 31
0.0
  0
LINE
  5
20EF
  8
035
 62
     3
 10
-118.1669421531264
 20
4.5254369947496196
 30
0.0
 11
-118.5149162720827
 21
4.8734111137059379
 31
0.0
  0
LINE
  5
20F0
  8
035
 62
     3
 10
-117.2322950450634
 20
3.2089522248458899
 30
0.0
 11
-117.7602691640197
 21
3.736926343802164
 31
0.0
  0
LINE
  5
20F1
  8
035
 62
     3
 10
-118.5487798149672
 20
4.5254369947496196
 30
0.0
 11
-120.2132387038272
 21
6.1898958836096174
 31
0.0
  0
LINE
  5
20F2
  8
035
 62
     3
 10
-117.6141327069041
 20
3.2089522248458899
 30
0.0
 11
-118.14210682586049
 21
3.736926343802164
 31
0.0
  0
LINE
  5
20F3
  8
035
 62
     3
 10
-118.80376606378221
 20
4.3985855817239177
 30
0.0
 11
-120.4812709494682
 21
6.0760904674099123
 31
0.0
  0
LINE
  5
20F4
  8
035
 62
     3
 10
-117.99597036874491
 20
3.2089522248458899
 30
0.0
 11
-118.5239444877012
 21
3.736926343802164
 31
0.0
  0
LINE
  5
20F5
  8
035
 62
     3
 10
-118.8730561852951
 20
4.086038041396014
 30
0.0
 11
-120.550561070981
 21
5.7635429270820424
 31
0.0
  0
LINE
  5
20F6
  8
035
 62
     3
 10
-118.3778080305857
 20
3.2089522248458899
 30
0.0
 11
-118.90578214954191
 21
3.736926343802164
 31
0.0
  0
LINE
  5
20F7
  8
035
 62
     3
 10
-118.94234630680791
 20
3.7734905010680762
 30
0.0
 11
-120.6198511924939
 21
5.4509953867541379
 31
0.0
  0
LINE
  5
20F8
  8
035
 62
     3
 10
-118.7596456924264
 20
3.2089522248458899
 30
0.0
 11
-120.6891413140068
 21
5.1384478464262848
 31
0.0
  0
LINE
  5
20F9
  8
035
 62
     3
 10
-121.52789375684981
 20
5.9772002892693497
 30
0.0
 11
-121.7405893511902
 21
6.1898958836096174
 31
0.0
  0
LINE
  5
20FA
  8
035
 62
     3
 10
-119.14148335426709
 20
3.2089522248458899
 30
0.0
 11
-120.7584314355197
 21
4.8259003060984149
 31
0.0
  0
LINE
  5
20FB
  8
035
 62
     3
 10
-121.5971838783627
 20
5.6646527489414797
 30
0.0
 11
-122.1224270130309
 21
6.1898958836096174
 31
0.0
  0
LINE
  5
20FC
  8
035
 62
     3
 10
-119.5233210161078
 20
3.2089522248458899
 30
0.0
 11
-120.8277215570325
 21
4.5133527657705619
 31
0.0
  0
LINE
  5
20FD
  8
035
 62
     3
 10
-121.66647399987561
 20
5.3521052086136267
 30
0.0
 11
-122.50426467487161
 21
6.1898958836096174
 31
0.0
  0
LINE
  5
20FE
  8
035
 62
     3
 10
-119.90515867794851
 20
3.2089522248458899
 30
0.0
 11
-120.8970116785454
 21
4.200805225442692
 31
0.0
  0
LINE
  5
20FF
  8
035
 62
     3
 10
-121.7357641213884
 20
5.0395576682857568
 30
0.0
 11
-122.8861023367123
 21
6.1898958836096174
 31
0.0
  0
LINE
  5
2100
  8
035
 62
     3
 10
-120.2869963397893
 20
3.2089522248458899
 30
0.0
 11
-120.9663018000583
 21
3.8882576851147892
 31
0.0
  0
LINE
  5
2101
  8
035
 62
     3
 10
-121.80505424290131
 20
4.72701012795787
 30
0.0
 11
-123.2679399985531
 21
6.1898958836096174
 31
0.0
  0
LINE
  5
2102
  8
035
 62
     3
 10
-120.6688340016301
 20
3.2089522248458899
 30
0.0
 11
-121.0355919215711
 21
3.5757101447869362
 31
0.0
  0
LINE
  5
2103
  8
035
 62
     3
 10
-121.8743443644142
 20
4.4144625876300001
 30
0.0
 11
-123.5518492501002
 21
6.0919674733159939
 31
0.0
  0
LINE
  5
2104
  8
035
 62
     3
 10
-121.05067166347079
 20
3.2089522248458899
 30
0.0
 11
-121.104882043084
 21
3.2631626044590658
 31
0.0
  0
LINE
  5
2105
  8
035
 62
     3
 10
-121.94363448592711
 20
4.1019150473021471
 30
0.0
 11
-123.621139371613
 21
5.7794199329881577
 31
0.0
  0
LINE
  5
2106
  8
035
 62
     3
 10
-122.0129246074399
 20
3.789367506974278
 30
0.0
 11
-123.690429493126
 21
5.4668723926603233
 31
0.0
  0
LINE
  5
2107
  8
035
 62
     3
 10
-122.08221472895281
 20
3.476819966646425
 30
0.0
 11
-123.7597196146388
 21
5.1543248523324703
 31
0.0
  0
LINE
  5
2108
  8
035
 62
     3
 10
-122.196184648993
 20
3.2089522248458731
 30
0.0
 11
-124.0004708074383
 21
5.0132383832911858
 31
0.0
  0
LINE
  5
2109
  8
035
 62
     3
 10
-122.5780223108337
 20
3.2089522248458731
 30
0.0
 11
-125.28893638553259
 21
5.9198662995447453
 31
0.0
  0
LINE
  5
210A
  8
035
 62
     3
 10
-122.95985997267439
 20
3.2089522248458731
 30
0.0
 11
-125.9408036314382
 21
6.1898958836096174
 31
0.0
  0
LINE
  5
210B
  8
035
 62
     3
 10
-123.3416976345152
 20
3.2089522248458731
 30
0.0
 11
-126.32264129327891
 21
6.1898958836096174
 31
0.0
  0
LINE
  5
210C
  8
035
 62
     3
 10
-123.72353529635591
 20
3.2089522248458731
 30
0.0
 11
-126.7044789551197
 21
6.1898958836096174
 31
0.0
  0
LINE
  5
210D
  8
035
 62
     3
 10
-124.1053729581967
 20
3.2089522248458731
 30
0.0
 11
-127.0863166169604
 21
6.1898958836096174
 31
0.0
  0
LINE
  5
210E
  8
035
 62
     3
 10
-124.6372375678725
 20
3.3589791726809062
 30
0.0
 11
-127.46815427880119
 21
6.1898958836096174
 31
0.0
  0
LINE
  5
210F
  8
035
 62
     3
 10
-126.37279658281091
 20
4.7127005257787093
 30
0.0
 11
-127.8499919406419
 21
6.1898958836096174
 31
0.0
  0
LINE
  5
2110
  8
035
 62
     3
 10
-126.4420867043238
 20
4.4001529854508563
 30
0.0
 11
-128.1195915900098
 21
6.0776578711368661
 31
0.0
  0
LINE
  5
2111
  8
035
 62
     3
 10
-126.51137682583671
 20
4.0876054451230033
 30
0.0
 11
-128.1888817115227
 21
5.765110330808997
 31
0.0
  0
LINE
  5
2112
  8
035
 62
     3
 10
-126.5806669473496
 20
3.7750579047951498
 30
0.0
 11
-128.25817183303559
 21
5.452562790481144
 31
0.0
  0
LINE
  5
2113
  8
035
 62
     3
 10
-126.64995706886251
 20
3.462510364467263
 30
0.0
 11
-128.32746195454851
 21
5.1400152501532403
 31
0.0
  0
LINE
  5
2114
  8
035
 62
     3
 10
-126.77823659108179
 20
3.2089522248458562
 30
0.0
 11
-128.39675207606129
 21
4.8274677098253873
 31
0.0
  0
LINE
  5
2115
  8
035
 62
     3
 10
-127.1600742529226
 20
3.2089522248458562
 30
0.0
 11
-128.46604219757421
 21
4.5149201694975174
 31
0.0
  0
LINE
  5
2116
  8
035
 62
     3
 10
-127.5419119147633
 20
3.2089522248458562
 30
0.0
 11
-128.53533231908699
 21
4.2023726291696644
 31
0.0
  0
LINE
  5
2117
  8
035
 62
     3
 10
-127.923749576604
 20
3.2089522248458562
 30
0.0
 11
-128.60462244059991
 21
3.889825088841794
 31
0.0
  0
LINE
  5
2118
  8
035
 62
     3
 10
-128.30558723844479
 20
3.2089522248458562
 30
0.0
 11
-128.6739125621128
 21
3.5772775485139068
 31
0.0
  0
LINE
  5
2119
  8
035
 62
     3
 10
-128.68742490028549
 20
3.2089522248458562
 30
0.0
 11
-128.7432026836257
 21
3.2647300081860369
 31
0.0
  0
LINE
  5
211A
  8
035
 62
     3
 10
-96.231223643822929
 20
3.2089522248458051
 30
0.0
 11
-96.940841439738634
 21
3.9185700207615151
 31
0.0
  0
LINE
  5
211B
  8
035
 62
     3
 10
-98.605971734661182
 20
5.5837003156840259
 30
0.0
 11
-99.212167302586721
 21
6.1898958836096334
 31
0.0
  0
LINE
  5
211C
  8
035
 62
     3
 10
-97.342768537186572
 20
4.3204971182094676
 30
0.0
 11
-97.690742656142945
 21
4.6684712371658197
 31
0.0
  0
LINE
  5
211D
  8
035
 62
     3
 10
-95.849385981982195
 20
3.2089522248458051
 30
0.0
 11
-97.308904994302225
 21
4.6684712371658197
 31
0.0
  0
LINE
  5
211E
  8
035
 62
     3
 10
-98.302355521789593
 20
5.6619217646532229
 30
0.0
 11
-98.830329640746015
 21
6.1898958836096334
 31
0.0
  0
LINE
  5
211F
  8
035
 62
     3
 10
-95.467548320141489
 20
3.2089522248458051
 30
0.0
 11
-96.984585575061033
 21
4.7259894797653912
 31
0.0
  0
LINE
  5
2120
  8
035
 62
     3
 10
-97.920517859948887
 20
5.6619217646532229
 30
0.0
 11
-98.448491978905267
 21
6.1898958836096334
 31
0.0
  0
LINE
  5
2121
  8
035
 62
     3
 10
-95.085710658300727
 20
3.2089522248458051
 30
0.0
 11
-96.740957636544096
 21
4.8641992030891661
 31
0.0
  0
LINE
  5
2122
  8
035
 62
     3
 10
-97.538680198108111
 20
5.6619217646532229
 30
0.0
 11
-98.066654317064518
 21
6.1898958836096334
 31
0.0
  0
LINE
  5
2123
  8
035
 62
     3
 10
-94.914728699623311
 20
3.4198079280091429
 30
0.0
 11
-96.575214785996877
 21
5.0802940143826918
 31
0.0
  0
LINE
  5
2124
  8
035
 62
     3
 10
-97.156842536267405
 20
5.6619217646532229
 30
0.0
 11
-97.684816655223784
 21
6.1898958836096334
 31
0.0
  0
LINE
  5
2125
  8
035
 62
     3
 10
-94.900068663499383
 20
3.7869855537259429
 30
0.0
 11
-96.590830025266996
 21
5.4777469154935572
 31
0.0
  0
LINE
  5
2126
  8
035
 62
     3
 10
-96.738496525139198
 20
5.6254134153657516
 30
0.0
 11
-97.302978993383064
 21
6.1898958836096334
 31
0.0
  0
LINE
  5
2127
  8
035
 62
     3
 10
-94.875113040297464
 20
4.1438675923647299
 30
0.0
 11
-96.921141331542316
 21
6.1898958836096334
 31
0.0
  0
LINE
  5
2128
  8
035
 62
     3
 10
-93.558360010937804
 20
3.2089522248458051
 30
0.0
 11
-93.850928447779424
 21
3.5015206616874219
 31
0.0
  0
LINE
  5
2129
  8
035
 62
     3
 10
-94.944496635760501
 20
4.5950888496684943
 30
0.0
 11
-96.53930366970161
 21
6.1898958836096334
 31
0.0
  0
LINE
  5
212A
  8
035
 62
     3
 10
-93.176522349097041
 20
3.2089522248458051
 30
0.0
 11
-93.781638326266517
 21
3.8140682020153092
 31
0.0
  0
LINE
  5
212B
  8
035
 62
     3
 10
-94.710395049216615
 20
4.7428249249653636
 30
0.0
 11
-96.157466007860805
 21
6.1898958836096334
 31
0.0
  0
LINE
  5
212C
  8
035
 62
     3
 10
-92.794684687256279
 20
3.2089522248458051
 30
0.0
 11
-93.712348204753653
 21
4.1266157423431791
 31
0.0
  0
LINE
  5
212D
  8
035
 62
     3
 10
-94.508091781483131
 20
4.9223593190726449
 30
0.0
 11
-95.775628346020099
 21
6.1898958836096334
 31
0.0
  0
LINE
  5
212E
  8
035
 62
     3
 10
-92.412847025415573
 20
3.2089522248458051
 30
0.0
 11
-93.643058083240817
 21
4.4391632826710321
 31
0.0
  0
LINE
  5
212F
  8
035
 62
     3
 10
-94.346020451787695
 20
5.1421256512179214
 30
0.0
 11
-95.393790684179379
 21
6.1898958836096334
 31
0.0
  0
LINE
  5
2130
  8
035
 62
     3
 10
-92.031009363574839
 20
3.2089522248458051
 30
0.0
 11
-93.573767961727924
 21
4.7517108229988851
 31
0.0
  0
LINE
  5
2131
  8
035
 62
     3
 10
-94.24335226951132
 20
5.4212951307822923
 30
0.0
 11
-94.981921626520815
 21
6.159864487791789
 31
0.0
  0
LINE
  5
2132
  8
035
 62
     3
 10
-91.826972954529055
 20
3.3867534776407431
 30
0.0
 11
-93.50447784021506
 21
5.0642583633267382
 31
0.0
  0
LINE
  5
2133
  8
035
 62
     3
 10
-91.757682833016204
 20
3.6993010179686481
 30
0.0
 11
-93.435187718702167
 21
5.376805903654641
 31
0.0
  0
LINE
  5
2134
  8
035
 62
     3
 10
-91.68839271150334
 20
4.0118485582965011
 30
0.0
 11
-93.365897597189317
 21
5.6893534439824931
 31
0.0
  0
LINE
  5
2135
  8
035
 62
     3
 10
-90.503658716211859
 20
3.2089522248457878
 30
0.0
 11
-90.627849702994155
 21
3.3331432116281259
 31
0.0
  0
LINE
  5
2136
  8
035
 62
     3
 10
-91.619102589990447
 20
4.324396098624371
 30
0.0
 11
-93.296607475676424
 21
6.001900984310347
 31
0.0
  0
LINE
  5
2137
  8
035
 62
     3
 10
-90.121821054371168
 20
3.2089522248457878
 30
0.0
 11
-90.558559581481319
 21
3.6456907519559789
 31
0.0
  0
LINE
  5
2138
  8
035
 62
     3
 10
-91.549812468477583
 20
4.6369436389522232
 30
0.0
 11
-93.102764713134974
 21
6.1898958836095481
 31
0.0
  0
LINE
  5
2139
  8
035
 62
     3
 10
-89.739983392530462
 20
3.2089522248457878
 30
0.0
 11
-90.489269459968455
 21
3.9582382922838319
 31
0.0
  0
LINE
  5
213A
  8
035
 62
     3
 10
-91.480522346964733
 20
4.9494911792800762
 30
0.0
 11
-92.720927051294225
 21
6.1898958836095481
 31
0.0
  0
LINE
  5
213B
  8
035
 62
     3
 10
-89.358145730689671
 20
3.2089522248457878
 30
0.0
 11
-90.419979338455548
 21
4.2707858326117192
 31
0.0
  0
LINE
  5
213C
  8
035
 62
     3
 10
-91.411232225451869
 20
5.2620387196079799
 30
0.0
 11
-92.339089389453449
 21
6.1898958836095481
 31
0.0
  0
LINE
  5
213D
  8
035
 62
     3
 10
-88.976308068848937
 20
3.2089522248457878
 30
0.0
 11
-90.350689216942698
 21
4.5833333729395722
 31
0.0
  0
LINE
  5
213E
  8
035
 62
     3
 10
-91.341942103938976
 20
5.574586259935832
 30
0.0
 11
-91.957251727612729
 21
6.1898958836095481
 31
0.0
  0
LINE
  5
213F
  8
035
 62
     3
 10
-88.68014443182048
 20
3.2946262496580712
 30
0.0
 11
-90.281399095429805
 21
4.8958809132674244
 31
0.0
  0
LINE
  5
2140
  8
035
 62
     3
 10
-91.272651982426112
 20
5.8871338002637019
 30
0.0
 11
-91.57541406577198
 21
6.1898958836095481
 31
0.0
  0
LINE
  5
2141
  8
035
 62
     3
 10
-88.610854310307616
 20
3.6071737899859411
 30
0.0
 11
-90.212108973916955
 21
5.2084284535952774
 31
0.0
  0
LINE
  5
2142
  8
035
 62
     3
 10
-88.54156418879478
 20
3.9197213303138279
 30
0.0
 11
-90.142818852404048
 21
5.5209759939231304
 31
0.0
  0
LINE
  5
2143
  8
035
 62
     3
 10
-88.295705358999641
 20
4.0557001623594617
 30
0.0
 11
-90.073528730891198
 21
5.8335235342510341
 31
0.0
  0
LINE
  5
2144
  8
035
 62
     3
 10
-88.027961661601765
 20
4.1697941268023184
 30
0.0
 11
-90.004238609378305
 21
6.1460710745788871
 31
0.0
  0
LINE
  5
2145
  8
035
 62
     3
 10
-87.760217964203889
 20
4.2838880912451742
 30
0.0
 11
-89.666225756568281
 21
6.1898958836095819
 31
0.0
  0
LINE
  5
2146
  8
035
 62
     3
 10
-86.303444435963826
 20
3.2089522248458051
 30
0.0
 11
-89.284388094727575
 21
6.1898958836095819
 31
0.0
  0
LINE
  5
2147
  8
035
 62
     3
 10
-85.921606774123106
 20
3.2089522248458051
 30
0.0
 11
-88.004104239355826
 21
5.2914496900785446
 31
0.0
  0
LINE
  5
2148
  8
035
 62
     3
 10
-88.195113581230316
 20
5.4824590319530406
 30
0.0
 11
-88.902550432886841
 21
6.1898958836095819
 31
0.0
  0
LINE
  5
2149
  8
035
 62
     3
 10
-85.539769112282315
 20
3.2089522248458051
 30
0.0
 11
-87.736360541957964
 21
5.4055436545214182
 31
0.0
  0
LINE
  5
214A
  8
035
 62
     3
 10
-88.125823459717466
 20
5.7950065722809452
 30
0.0
 11
-88.520712771046078
 21
6.1898958836095819
 31
0.0
  0
LINE
  5
214B
  8
035
 62
     3
 10
-85.157931450441581
 20
3.2089522248458051
 30
0.0
 11
-87.468616844560074
 21
5.5196376189642899
 31
0.0
  0
LINE
  5
214C
  8
035
 62
     3
 10
-88.056533338204616
 20
6.1075541126088151
 30
0.0
 11
-88.138875109205344
 21
6.1898958836095819
 31
0.0
  0
LINE
  5
214D
  8
035
 62
     3
 10
-84.776093788600846
 20
3.2089522248458051
 30
0.0
 11
-87.200873147162241
 21
5.6337315834071626
 31
0.0
  0
LINE
  5
214E
  8
035
 62
     3
 10
-84.394256126760155
 20
3.2089522248458051
 30
0.0
 11
-86.933129449764394
 21
5.7478255478500362
 31
0.0
  0
LINE
  5
214F
  8
035
 62
     3
 10
-84.012418464919421
 20
3.2089522248458051
 30
0.0
 11
-86.665385752366532
 21
5.861919512292908
 31
0.0
  0
LINE
  5
2150
  8
035
 62
     3
 10
-85.618268385021025
 20
5.1966398067881547
 30
0.0
 11
-86.397642054968628
 21
5.9760134767357806
 31
0.0
  0
LINE
  5
2151
  8
035
 62
     3
 10
-85.350524687623135
 20
5.3107337712310283
 30
0.0
 11
-86.129898357570795
 21
6.0901074411786542
 31
0.0
  0
LINE
  5
2152
  8
035
 62
     3
 10
-85.082780990225316
 20
5.4248277356738832
 30
0.0
 11
-85.847849138160925
 21
6.189895883609565
 31
0.0
  0
LINE
  5
2153
  8
035
 62
     3
 10
-84.815037292827441
 20
5.538921700116755
 30
0.0
 11
-85.46601147632019
 21
6.189895883609565
 31
0.0
  0
LINE
  5
2154
  8
035
 62
     3
 10
-84.547293595429551
 20
5.6530156645596117
 30
0.0
 11
-85.084173814479456
 21
6.189895883609565
 31
0.0
  0
LINE
  5
2155
  8
035
 62
     3
 10
-84.279549898031675
 20
5.7671096290025012
 30
0.0
 11
-84.702336152638694
 21
6.189895883609565
 31
0.0
  0
LINE
  5
2156
  8
035
 62
     3
 10
-84.011806200633814
 20
5.881203593445357
 30
0.0
 11
-84.320498490797988
 21
6.189895883609565
 31
0.0
  0
LINE
  5
2157
  8
035
 62
     3
 10
-83.744062503235924
 20
5.9952975578882297
 30
0.0
 11
-83.938660828957254
 21
6.189895883609565
 31
0.0
  0
LINE
  5
2158
  8
035
 62
     3
 10
-83.476318805838105
 20
6.1093915223310846
 30
0.0
 11
-83.556823167116534
 21
6.189895883609565
 31
0.0
  0
ENDBLK
  5
2159
  8
0
  0
BLOCK
  8
0
  2
A$C680C2E08
 70
     0
 10
0.0
 20
0.0
 30
0.0
  3
A$C680C2E08
  1

  0
POLYLINE
  5
101B7
  8
05
 66
     1
 10
0.0
 20
0.0
 30
0.0
  0
VERTEX
  5
1058C
  8
05
 10
76.650820483064194
 20
14.79999910788001
 30
0.0
  0
VERTEX
  5
1058D
  8
05
 10
82.250820483064217
 20
14.79999910788001
 30
0.0
  0
VERTEX
  5
1058E
  8
05
 10
82.250820483064217
 20
33.199999107879883
 30
0.0
  0
VERTEX
  5
1058F
  8
05
 10
76.650820483064194
 20
33.199999107879883
 30
0.0
  0
SEQEND
  5
10590
  8
05
  0
LINE
  5
101B8
  8
BEM1
 10
14.7508204830641
 20
59.536512630381708
 30
0.0
 11
78.750820483064203
 21
59.536512630381708
 31
0.0
  0
LINE
  5
101B9
  8
MITTE
 10
84.89613840398988
 20
23.999999107879951
 30
0.0
 11
12.5626913643606
 21
23.999999107879951
 31
0.0
  0
LINE
  5
101BA
  8
BEM1
 10
31.750820483064111
 20
39.599999107879967
 30
0.0
 11
31.750820483064111
 21
50.476416076348642
 31
0.0
  0
LINE
  5
101BB
  8
BEM1
 10
14.7508204830641
 20
33.49999910787983
 30
0.0
 11
14.7508204830641
 21
60.667686788276797
 31
0.0
  0
LINE
  5
101BC
  8
05
 10
36.250820483064103
 20
23.999999107879951
 30
0.0
 11
31.750820483064111
 21
23.999999107879951
 31
0.0
  0
POLYLINE
  5
101BD
  8
05
 66
     1
 10
0.0
 20
0.0
 30
0.0
  0
VERTEX
  5
10591
  8
05
 10
40.200820483064149
 20
7.9999991078798303
 30
0.0
  0
VERTEX
  5
10592
  8
05
 10
34.350820483064133
 20
7.9999991078799431
 30
0.0
  0
VERTEX
  5
10593
  8
05
 10
34.350820483064133
 20
10.99999910787994
 30
0.0
  0
VERTEX
  5
10594
  8
05
 10
31.750820483064111
 20
10.99999910787994
 30
0.0
  0
SEQEND
  5
10595
  8
05
  0
POLYLINE
  5
101BE
  8
05
 66
     1
 10
0.0
 20
0.0
 30
0.0
  0
VERTEX
  5
10596
  8
05
 10
31.750820483064111
 20
10.99999910787983
 30
0.0
  0
VERTEX
  5
10597
  8
05
 10
31.750820483064111
 20
38.599999107879967
 30
0.0
  0
VERTEX
  5
10598
  8
05
 10
36.250820483064103
 20
38.599999107879967
 30
0.0
  0
VERTEX
  5
10599
  8
05
 10
36.250820483064103
 20
23.999999107879951
 30
0.0
  0
VERTEX
  5
1059A
  8
05
 10
38.550820483064172
 20
23.999999107880061
 30
0.0
  0
SEQEND
  5
1059B
  8
05
  0
LINE
  5
101BF
  8
025
 10
14.7508204830641
 20
32.49999910787983
 30
0.0
 11
18.437865052209979
 21
32.49999910787983
 31
0.0
  0
LINE
  5
101C0
  8
025
 10
14.7508204830641
 20
15.49999910787983
 30
0.0
 11
18.437865052209979
 21
15.49999910787983
 31
0.0
  0
POLYLINE
  5
101C1
  8
05
 66
     1
 10
0.0
 20
0.0
 30
0.0
  0
VERTEX
  5
1059C
  8
05
 10
18.437865052209979
 20
13.49999910787983
 30
0.0
  0
VERTEX
  5
1059D
  8
05
 10
16.7508204830641
 20
13.49999910787983
 30
0.0
  0
VERTEX
  5
1059E
  8
05
 10
14.7508204830641
 20
15.49999910787983
 30
0.0
  0
VERTEX
  5
1059F
  8
05
 10
14.7508204830641
 20
32.49999910787983
 30
0.0
  0
VERTEX
  5
105A0
  8
05
 10
16.7508204830641
 20
34.49999910787983
 30
0.0
  0
VERTEX
  5
105A1
  8
05
 10
18.437865052209979
 20
34.49999910787983
 30
0.0
  0
SEQEND
  5
105A2
  8
05
  0
SOLID
  5
101C2
  8
BEM1
 10
4.768435810099958
 20
16.99999910787983
 30
0.0
 11
5.9351024767665868
 21
16.99999910787983
 31
0.0
 12
5.3517691434333301
 22
13.49999910787983
 32
0.0
 13
5.3517691434333301
 23
13.49999910787983
 33
0.0
  0
LINE
  5
101C3
  8
BEM1
 10
5.3517691434332164
 20
30.99999910787983
 30
0.0
 11
5.3517691434332164
 21
13.49999910787983
 31
0.0
  0
TEXT
  5
101C4
  8
BEM1
 62
     3
 10
3.4999975696897518
 20
8.2499991078798303
 30
0.0
 40
3.5
  1
3/8-32 UNEF-2A THD.
 50
90.0
 41
0.5
 51
15.0
 72
     1
 11
1.749997569689753
 21
23.99999910787983
 31
0.0
 73
     2
  0
LINE
  5
101C5
  8
BEM1
 10
15.41273325089958
 20
13.49999910787983
 30
0.0
 11
4.5310245394898621
 21
13.49999910787983
 31
0.0
  0
SOLID
  5
101C6
  8
BEM1
 10
4.7684358100998452
 20
30.99999910787983
 30
0.0
 11
5.9351024767665868
 21
30.99999910787983
 31
0.0
 12
5.3517691434332164
 22
34.49999910787983
 32
0.0
 13
5.3517691434332164
 23
34.49999910787983
 33
0.0
  0
LINE
  5
101C7
  8
BEM1
 10
13.71569897077643
 20
34.49999910787983
 30
0.0
 11
4.5310245394898621
 21
34.49999910787983
 31
0.0
  0
LINE
  5
101C8
  8
05
 10
26.237865052209941
 20
7.3999991078799212
 30
0.0
 11
26.237865052209941
 21
40.59999910787996
 31
0.0
  0
LINE
  5
101C9
  8
05
 10
16.7508204830641
 20
13.49999910787994
 30
0.0
 11
16.7508204830641
 21
34.49999910787983
 31
0.0
  0
POLYLINE
  5
101CA
  8
05
 66
     1
 10
0.0
 20
0.0
 30
0.0
 70
     1
  0
VERTEX
  5
105A3
  8
05
 10
29.449009873329828
 20
38.859630806056998
 30
0.0
  0
VERTEX
  5
105A4
  8
05
 10
29.449009873329828
 20
9.2596308060568617
 30
0.0
  0
VERTEX
  5
105A5
  8
05
 10
29.64900987332976
 20
9.0596308060569282
 30
0.0
  0
VERTEX
  5
105A6
  8
05
 10
30.849009873329809
 20
9.0596308060569282
 30
0.0
  0
VERTEX
  5
105A7
  8
05
 10
31.049009873329741
 20
9.2596308060568617
 30
0.0
  0
VERTEX
  5
105A8
  8
05
 10
31.049009873329741
 20
38.859630806056892
 30
0.0
  0
VERTEX
  5
105A9
  8
05
 10
30.849009873329809
 20
39.05963080605693
 30
0.0
  0
VERTEX
  5
105AA
  8
05
 10
29.64900987332987
 20
39.05963080605693
 30
0.0
  0
SEQEND
  5
105AB
  8
05
  0
LINE
  5
101CB
  8
05
 10
27.83786505220997
 20
40.999999107880058
 30
0.0
 11
27.83786505220997
 21
6.9999991078799431
 31
0.0
  0
POLYLINE
  5
101CC
  8
05
 66
     1
 10
0.0
 20
0.0
 30
0.0
  0
VERTEX
  5
105AC
  8
05
 10
26.237865052210172
 20
9.0999991078798512
 30
0.0
  0
VERTEX
  5
105AD
  8
05
 10
19.103106252859671
 20
9.0999991078797393
 30
0.0
  0
VERTEX
  5
105AE
  8
05
 10
18.437865052209979
 20
9.7652403085294281
 30
0.0
  0
VERTEX
  5
105AF
  8
05
 10
18.437865052209979
 20
38.234757907230573
 30
0.0
  0
VERTEX
  5
105B0
  8
05
 10
19.10310625285944
 20
38.899999107879921
 30
0.0
  0
VERTEX
  5
105B1
  8
05
 10
26.237865052209941
 20
38.899999107879921
 30
0.0
  0
SEQEND
  5
105B2
  8
05
  0
POLYLINE
  5
101CD
  8
05
 66
     1
 10
0.0
 20
0.0
 30
0.0
  0
VERTEX
  5
105B3
  8
05
 10
20.037865052209671
 20
38.899999107879466
 30
0.0
 42
0.2160186508206791
  0
VERTEX
  5
105B4
  8
05
 10
20.037865052209671
 20
23.999999107879489
 30
0.0
 42
0.2160186508206876
  0
VERTEX
  5
105B5
  8
05
 10
20.03786505220933
 20
9.0999991078813292
 30
0.0
 42
0.2160186508206876
  0
SEQEND
  5
105B6
  8
05
  0
LINE
  5
101CE
  8
05
 10
31.750820483064111
 20
13.49999910788028
 30
0.0
 11
31.049009873329741
 21
13.49999910788017
 31
0.0
  0
LINE
  5
101CF
  8
025
 10
31.049009873329741
 20
15.49999910787983
 30
0.0
 11
31.750820483064111
 21
15.49999910787983
 31
0.0
  0
LINE
  5
101D0
  8
025
 10
27.837865052210081
 20
15.49999910787994
 30
0.0
 11
29.449009873329828
 21
15.49999910787994
 31
0.0
  0
LINE
  5
101D1
  8
05
 10
29.449009873329828
 20
13.499999107880059
 30
0.0
 11
27.83786505220997
 21
13.49999910787983
 31
0.0
  0
ARC
  5
101D2
  8
05
 10
27.91732127836201
 20
10.717824012488331
 30
0.0
 40
3.7186738648611208
 50
243.1518347046258
 51
268.77567835952249
  0
LINE
  5
101D3
  8
05
 10
26.237865052209941
 20
23.999999107879951
 30
0.0
 11
20.037865052209899
 21
23.999999107879951
 31
0.0
  0
ARC
  5
101D4
  8
05
 10
27.917321278362241
 20
37.282174203271552
 30
0.0
 40
3.7186738648611879
 50
91.224321640481406
 51
116.8481652953781
  0
LINE
  5
101D5
  8
05
 10
31.750820483064111
 20
34.499999107880058
 30
0.0
 11
31.049009873329741
 21
34.499999107880058
 31
0.0
  0
LINE
  5
101D6
  8
05
 10
29.449009873329828
 20
34.499999107879937
 30
0.0
 11
27.83786505220997
 21
34.49999910787983
 31
0.0
  0
LINE
  5
101D7
  8
025
 10
31.049009873329741
 20
32.499999107880058
 30
0.0
 11
31.750820483064111
 21
32.499999107880058
 31
0.0
  0
LINE
  5
101D8
  8
025
 10
27.83786505220997
 20
32.49999910787983
 30
0.0
 11
29.449009873329828
 21
32.499999107879951
 31
0.0
  0
LINE
  5
101D9
  8
05
 10
51.25082048306421
 20
23.999999107879951
 30
0.0
 11
57.150820483064187
 21
23.999999107879951
 31
0.0
  0
POLYLINE
  5
101DA
  8
05
 66
     1
 10
0.0
 20
0.0
 30
0.0
  0
VERTEX
  5
105B7
  8
05
 10
65.600820483064126
 20
7.9999991078799431
 30
0.0
  0
VERTEX
  5
105B8
  8
05
 10
42.800820483064172
 20
7.9999991078797157
 30
0.0
  0
SEQEND
  5
105B9
  8
05
  0
LINE
  5
101DB
  8
05
 10
38.550820483064172
 20
23.999999107879951
 30
0.0
 11
38.550820483064172
 21
7.9999991078799431
 31
0.0
  0
LINE
  5
101DC
  8
05
 10
44.450820483064149
 20
7.9999991078799431
 30
0.0
 11
44.450820483064149
 21
23.999999107879951
 31
0.0
  0
LINE
  5
101DD
  8
05
 10
51.25082048306421
 20
23.999999107879951
 30
0.0
 11
51.25082048306421
 21
7.9999991078799431
 31
0.0
  0
LINE
  5
101DE
  8
025
 62
     5
 10
42.609104013104677
 20
2.701693881199275
 30
0.0
 11
42.777073476260398
 21
2.701693881199275
 31
0.0
  0
POLYLINE
  5
101DF
  8
035
 66
     1
 10
0.0
 20
0.0
 30
0.0
  0
VERTEX
  5
105BA
  8
035
 10
42.800820483064172
 20
1.239999107879953
 30
0.0
  0
VERTEX
  5
105BB
  8
035
 10
42.800820483064172
 20
8.9999991078799422
 30
0.0
  0
VERTEX
  5
105BC
  8
035
 10
42.800820483064172
 20
8.9999991078799422
 30
0.0
  0
VERTEX
  5
105BD
  8
035
 10
44.450820483064149
 20
8.9999991078799422
 30
0.0
  0
SEQEND
  5
105BE
  8
035
  0
LINE
  5
101E0
  8
025
 62
     5
 10
41.018526012608959
 20
6.798304334560612
 30
0.0
 11
40.444165011829448
 21
6.798304334560612
 31
0.0
  0
LINE
  5
101E1
  8
035
 10
38.550820483064172
 20
8.9999991078799422
 30
0.0
 11
40.200820483064149
 21
8.9999991078799422
 31
0.0
  0
LINE
  5
101E2
  8
025
 62
     5
 10
40.369015485171303
 20
2.701693881199275
 30
0.0
 11
40.534358196629107
 21
2.701693881199275
 31
0.0
  0
LINE
  5
101E3
  8
035
 10
40.200820483064149
 20
8.9999991078799422
 30
0.0
 11
40.200820483064149
 21
1.239999107879953
 31
0.0
  0
LINE
  5
101E4
  8
025
 62
     5
 10
42.524657374557592
 20
6.798304334560612
 30
0.0
 11
41.436727638790551
 21
6.798304334560612
 31
0.0
  0
LINE
  5
101E5
  8
025
 62
     5
 10
42.091934086223198
 20
2.701693881199275
 30
0.0
 11
40.866364451191991
 21
2.701693881199275
 31
0.0
  0
ARC
  5
101E6
  8
035
 10
41.500820483064217
 20
1.2999991078800119
 30
0.0
 40
1.2999999999999969
 50
180.0
 51
0.0
  0
LINE
  5
101E7
  8
035
 10
45.950820483064149
 20
28.70141228274111
 30
0.0
 11
46.750820483064103
 21
28.70141228274111
 31
0.0
  0
POLYLINE
  5
101E8
  8
05
 66
     1
 10
0.0
 20
0.0
 30
0.0
  0
VERTEX
  5
105BF
  8
05
 10
44.450820483064149
 20
23.999999107879951
 30
0.0
  0
VERTEX
  5
105C0
  8
05
 10
46.750820483064103
 20
23.999999107879951
 30
0.0
  0
VERTEX
  5
105C1
  8
05
 10
46.750820483064103
 20
38.599999107879967
 30
0.0
  0
VERTEX
  5
105C2
  8
05
 10
48.950820483064149
 20
38.599999107879967
 30
0.0
  0
VERTEX
  5
105C3
  8
05
 10
48.950820483064149
 20
23.999999107879951
 30
0.0
  0
VERTEX
  5
105C4
  8
05
 10
51.25082048306421
 20
23.999999107879951
 30
0.0
  0
SEQEND
  5
105C5
  8
05
  0
LINE
  5
101E9
  8
05
 10
36.250820483064103
 20
31.399999107879921
 30
0.0
 11
46.750820483064103
 21
31.399999107879921
 31
0.0
  0
LINE
  5
101EA
  8
035
 10
45.950820483064149
 20
23.999999107880061
 30
0.0
 11
45.950820483064149
 21
28.70141228274111
 31
0.0
  0
LINE
  5
101EB
  8
035
 10
36.250820483064103
 20
28.70141228274111
 30
0.0
 11
37.050820483064172
 21
28.70141228274111
 31
0.0
  0
LINE
  5
101EC
  8
035
 10
37.050820483064172
 20
23.999999107880061
 30
0.0
 11
37.050820483064172
 21
28.70141228274111
 31
0.0
  0
CIRCLE
  5
101ED
  8
035
 10
41.500820483064217
 20
17.99999910787983
 30
0.0
 40
1.0
  0
LINE
  5
101EE
  8
035
 10
49.750820483064217
 20
23.999999107880061
 30
0.0
 11
49.750820483064217
 21
28.70141228274111
 31
0.0
  0
LINE
  5
101EF
  8
05
 10
46.750820483064103
 20
23.999999107879951
 30
0.0
 11
48.950820483064149
 21
23.999999107879951
 31
0.0
  0
LINE
  5
101F0
  8
035
 10
48.950820483064149
 20
28.70141228274111
 30
0.0
 11
49.750820483064217
 21
28.70141228274111
 31
0.0
  0
CIRCLE
  5
101F1
  8
035
 10
54.200820483064149
 20
17.99999910787983
 30
0.0
 40
1.0
  0
LINE
  5
101F2
  8
05
 10
63.950820483064149
 20
23.999999107879951
 30
0.0
 11
63.950820483064149
 21
7.9999991078799431
 31
0.0
  0
LINE
  5
101F3
  8
05
 10
69.850820483064226
 20
7.9999991078799431
 30
0.0
 11
69.850820483064226
 21
23.999999107879951
 31
0.0
  0
POLYLINE
  5
101F4
  8
05
 66
     1
 10
0.0
 20
0.0
 30
0.0
  0
VERTEX
  5
105C6
  8
05
 10
69.850820483064226
 20
23.999999107879951
 30
0.0
  0
VERTEX
  5
105C7
  8
05
 10
72.150820483064194
 20
23.999999107879951
 30
0.0
  0
VERTEX
  5
105C8
  8
05
 10
72.150820483064194
 20
38.599999107879967
 30
0.0
  0
VERTEX
  5
105C9
  8
05
 10
76.650820483064194
 20
38.599999107879967
 30
0.0
  0
VERTEX
  5
105CA
  8
05
 10
76.650820483064194
 20
7.9999991078799431
 30
0.0
  0
VERTEX
  5
105CB
  8
05
 10
68.200820483064149
 20
7.9999991078799431
 30
0.0
  0
SEQEND
  5
105CC
  8
05
  0
LINE
  5
101F5
  8
05
 10
57.150820483064187
 20
23.999999107879951
 30
0.0
 11
57.150820483064187
 21
7.9999991078799431
 31
0.0
  0
LINE
  5
101F6
  8
025
 62
     5
 10
67.491934086223182
 20
2.7016938811993891
 30
0.0
 11
66.266364451191976
 21
2.7016938811993891
 31
0.0
  0
ARC
  5
101F7
  8
035
 10
66.900820483064194
 20
1.2999991078800119
 30
0.0
 40
1.2999999999999969
 50
180.0
 51
0.0
  0
LINE
  5
101F8
  8
025
 62
     5
 10
66.418526012608936
 20
6.798304334560612
 30
0.0
 11
65.844165011829432
 21
6.798304334560612
 31
0.0
  0
LINE
  5
101F9
  8
025
 62
     5
 10
65.769015485171167
 20
2.7016938811993891
 30
0.0
 11
65.934358196629091
 21
2.7016938811993891
 31
0.0
  0
LINE
  5
101FA
  8
035
 10
63.950820483064149
 20
8.9999991078799422
 30
0.0
 11
65.600820483064126
 21
8.9999991078799422
 31
0.0
  0
LINE
  5
101FB
  8
035
 10
65.600820483064126
 20
8.9999991078799422
 30
0.0
 11
65.600820483064126
 21
1.239999107879953
 31
0.0
  0
LINE
  5
101FC
  8
025
 62
     5
 10
67.924657374557555
 20
6.798304334560612
 30
0.0
 11
66.836727638790535
 21
6.798304334560612
 31
0.0
  0
LINE
  5
101FD
  8
025
 62
     5
 10
68.009104013104661
 20
2.7016938811993891
 30
0.0
 11
68.177073476260375
 21
2.7016938811993891
 31
0.0
  0
POLYLINE
  5
101FE
  8
035
 66
     1
 10
0.0
 20
0.0
 30
0.0
  0
VERTEX
  5
105CD
  8
035
 10
68.200820483064149
 20
1.239999107879953
 30
0.0
  0
VERTEX
  5
105CE
  8
035
 10
68.200820483064149
 20
8.9999991078799422
 30
0.0
  0
VERTEX
  5
105CF
  8
035
 10
68.200820483064149
 20
8.9999991078799422
 30
0.0
  0
VERTEX
  5
105D0
  8
035
 10
69.850820483064126
 20
8.9999991078799422
 30
0.0
  0
SEQEND
  5
105D1
  8
035
  0
LINE
  5
101FF
  8
05
 10
61.650820483064201
 20
31.399999107879921
 30
0.0
 11
72.150820483064194
 21
31.399999107879921
 31
0.0
  0
CIRCLE
  5
10200
  8
035
 10
66.900820483064194
 20
17.99999910787983
 30
0.0
 40
1.0
  0
LINE
  5
10201
  8
035
 10
61.650820483064201
 20
28.70141228274111
 30
0.0
 11
62.450820483064142
 21
28.70141228274111
 31
0.0
  0
LINE
  5
10202
  8
035
 10
58.650820483064187
 20
28.70141228274111
 30
0.0
 11
59.450820483064149
 21
28.70141228274111
 31
0.0
  0
LINE
  5
10203
  8
05
 10
59.450820483064149
 20
23.999999107879951
 30
0.0
 11
61.650820483064201
 21
23.999999107879951
 31
0.0
  0
LINE
  5
10204
  8
035
 10
58.650820483064187
 20
23.999999107880061
 30
0.0
 11
58.650820483064187
 21
28.70141228274111
 31
0.0
  0
LINE
  5
10205
  8
035
 10
62.450820483064142
 20
23.999999107880061
 30
0.0
 11
62.450820483064142
 21
28.70141228274111
 31
0.0
  0
POLYLINE
  5
10206
  8
05
 66
     1
 10
0.0
 20
0.0
 30
0.0
  0
VERTEX
  5
105D2
  8
05
 10
57.150820483064187
 20
23.999999107879951
 30
0.0
  0
VERTEX
  5
105D3
  8
05
 10
59.450820483064149
 20
23.999999107879951
 30
0.0
  0
VERTEX
  5
105D4
  8
05
 10
59.450820483064149
 20
38.599999107879967
 30
0.0
  0
VERTEX
  5
105D5
  8
05
 10
61.650820483064201
 20
38.599999107879967
 30
0.0
  0
VERTEX
  5
105D6
  8
05
 10
61.650820483064201
 20
23.999999107879951
 30
0.0
  0
VERTEX
  5
105D7
  8
05
 10
63.950820483064149
 20
23.99999910787983
 30
0.0
  0
SEQEND
  5
105D8
  8
05
  0
LINE
  5
10207
  8
035
 10
71.35082048306424
 20
28.70141228274111
 30
0.0
 11
72.150820483064194
 21
28.70141228274111
 31
0.0
  0
LINE
  5
10208
  8
035
 10
71.35082048306424
 20
23.999999107880061
 30
0.0
 11
71.350820483064126
 21
28.70141228274111
 31
0.0
  0
LINE
  5
10209
  8
05
 10
72.150820483064194
 20
23.999999107879951
 30
0.0
 11
76.650820483064194
 21
23.999999107879951
 31
0.0
  0
SOLID
  5
1020A
  8
BEM1
 10
18.2508204830641
 20
60.119845963715079
 30
0.0
 11
18.2508204830641
 21
58.953179297048337
 31
0.0
 12
14.7508204830641
 22
59.536512630381708
 32
0.0
 13
14.7508204830641
 23
59.536512630381708
 33
0.0
  0
SOLID
  5
1020B
  8
BEM1
 10
18.2508204830641
 20
51.119845963715079
 30
0.0
 11
18.2508204830641
 21
49.953179297048337
 31
0.0
 12
14.7508204830641
 22
50.536512630381708
 32
0.0
 13
14.7508204830641
 23
50.536512630381708
 33
0.0
  0
LINE
  5
1020C
  8
BEM1
 10
28.250820483064111
 20
50.536512630381708
 30
0.0
 11
18.2508204830641
 21
50.536512630381708
 31
0.0
  0
TEXT
  5
1020D
  8
BEM1
 62
     4
 10
24.23348111985047
 20
52.536514096528428
 30
0.0
 40
3.0
  1
[.334"]
 41
0.7
 51
15.0
 72
     1
 11
29.48348111985047
 21
54.036514096528443
 31
0.0
 73
     2
  0
TEXT
  5
1020E
  8
BEM1
 62
     3
 10
15.4360125153182
 20
52.380903157389291
 30
0.0
 40
3.5
  1
8.50
 41
0.7
 51
15.0
 72
     1
 11
18.906845848651528
 21
54.130903157389298
 31
0.0
 73
     2
  0
SOLID
  5
1020F
  8
BEM1
 10
28.250820483064111
 20
51.119845963715079
 30
0.0
 11
28.250820483064111
 21
49.953179297048337
 31
0.0
 12
31.750820483064111
 22
50.536512630381708
 32
0.0
 13
31.750820483064111
 23
50.536512630381708
 33
0.0
  0
TEXT
  5
10210
  8
BEM1
 62
     4
 10
50.127704987135168
 20
61.253342515505778
 30
0.0
 40
3.0
  1
[1.320"]
 41
0.7
 51
15.0
 72
     1
 11
55.902704987135166
 21
62.753342515505778
 31
0.0
 73
     2
  0
TEXT
  5
10211
  8
BEM1
 62
     3
 10
37.986075979279683
 20
61.286512630381708
 30
0.0
 40
3.5
  1
33.50
 41
0.7
 51
15.0
 72
     1
 11
42.681909312613008
 21
63.036512630381708
 31
0.0
 73
     2
  0
LINE
  5
10212
  8
BEM1
 10
82.250820483064217
 20
34.199999107879883
 30
0.0
 11
82.250820483064217
 21
60.239199568468848
 31
0.0
  0
LINE
  5
10213
  8
BEM1
 10
95.713692719509837
 20
37.499999107880058
 30
0.0
 11
95.713692719509837
 21
11.49999910787994
 31
0.0
  0
TEXT
  5
10214
  8
BEM1
 62
     3
 10
93.963692719509822
 20
12.832521946208569
 30
0.0
 40
3.5
  1
15.50
 50
90.0
 41
0.7
 51
15.0
 72
     1
 11
92.213692719509808
 21
17.120021946208571
 31
0.0
 73
     2
  0
LINE
  5
10215
  8
BEM1
 10
77.819307589333334
 20
7.9999991078799431
 30
0.0
 11
96.572889208706442
 21
7.9999991078799431
 31
0.0
  0
SOLID
  5
10216
  8
BEM1
 10
95.130359386176465
 20
11.49999910787994
 30
0.0
 11
96.297026052843066
 21
11.49999910787994
 31
0.0
 12
95.713692719509837
 22
7.9999991078799431
 32
0.0
 13
95.713692719509837
 23
7.9999991078799431
 33
0.0
  0
LINE
  5
10217
  8
BEM1
 10
83.564928758793485
 20
38.599999107879967
 30
0.0
 11
96.572889208706442
 21
38.599999107879967
 31
0.0
  0
LINE
  5
10218
  8
BEM1
 10
77.922922596650551
 20
38.599999107879967
 30
0.0
 11
80.712333339895054
 21
38.599999107879967
 31
0.0
  0
SOLID
  5
10219
  8
BEM1
 10
95.130359386176465
 20
35.099999107879967
 30
0.0
 11
96.297026052843066
 21
35.099999107879967
 31
0.0
 12
95.713692719509837
 22
38.599999107879967
 32
0.0
 13
95.713692719509837
 23
38.599999107879967
 33
0.0
  0
TEXT
  5
1021A
  8
BEM1
 62
     4
 10
93.861544534438053
 20
24.022995449864791
 30
0.0
 40
3.0
  1
[.610"]
 50
90.0
 41
0.7
 51
15.0
 72
     1
 11
92.361544534438053
 21
28.747995449864788
 31
0.0
 73
     2
  0
SOLID
  5
1021B
  8
BEM1
 10
78.750820483064203
 20
60.119845963715079
 30
0.0
 11
78.750820483064203
 21
58.953179297048337
 31
0.0
 12
82.250820483064217
 22
59.536512630381708
 32
0.0
 13
82.250820483064217
 23
59.536512630381708
 33
0.0
  0
ENDBLK
  5
1021D
  8
0
  0
BLOCK
  8
0
  2
A$C36563CDC
 70
     0
 10
0.0
 20
0.0
 30
0.0
  3
A$C36563CDC
  1

  0
LINE
  5
102B4
  8
035
 10
0.0000004912608347
 20
9.091439534704989
 30
0.0
 11
10.500000491260829
 21
9.091439534704989
 31
0.0
  0
LINE
  5
102B5
  8
035
 10
12.70000049126088
 20
9.091439534704989
 30
0.0
 11
23.20000049126088
 21
9.091439534704989
 31
0.0
  0
LINE
  5
102B6
  8
035
 10
25.400000491260929
 20
9.091439534704989
 30
0.0
 11
35.900000491260933
 21
9.091439534704989
 31
0.0
  0
LINE
  5
102B7
  8
035
 10
117.1635759166421
 20
8.5292808038551584
 30
0.0
 11
119.4620573361055
 21
9.0436099481766519
 31
0.0
  0
LINE
  5
102B8
  8
035
 10
117.78836516015259
 20
7.8493049307286924
 30
0.0
 11
119.6367523290441
 21
8.2629168846477228
 31
0.0
  0
POLYLINE
  5
102B9
  8
035
 66
     1
 10
0.0
 20
0.0
 30
0.0
  0
VERTEX
  5
105D9
  8
035
 10
122.003583228347
 20
6.3940957415371988
 30
0.0
 42
0.1181822769953935
  0
VERTEX
  5
105DA
  8
035
 10
121.6939034496294
 20
7.940916183882563
 30
0.0
 42
0.3531951765162725
  0
VERTEX
  5
105DB
  8
035
 10
119.4620573361055
 20
9.0436099481766519
 30
0.0
 42
0.3531951765162725
  0
SEQEND
  5
105DC
  8
035
  0
POLYLINE
  5
102BA
  8
035
 66
     1
 10
0.0
 20
0.0
 30
0.0
  0
VERTEX
  5
105DD
  8
035
 10
121.204151117938
 20
6.4242337714487681
 30
0.0
 42
0.1181822769953939
  0
VERTEX
  5
105DE
  8
035
 10
120.96768931383301
 20
7.6053375359184079
 30
0.0
 42
0.3531951765162764
  0
VERTEX
  5
105DF
  8
035
 10
119.6367523290441
 20
8.2629168846477228
 30
0.0
 42
0.3531951765162764
  0
SEQEND
  5
105E0
  8
035
  0
LINE
  5
102BB
  8
035
 10
121.7625303021708
 20
-0.0000000257261092
 30
0.0
 11
122.003583228347
 21
6.3940957415357778
 31
0.0
  0
LINE
  5
102BC
  8
035
 10
121.0449409427746
 20
2.2010736411586151
 30
0.0
 11
121.204151117938
 21
6.424233771447688
 31
0.0
  0
ENDBLK
  5
102BE
  8
0
  0
BLOCK
  8
0
  2
ZKOPF-REAN
 70
     2
 10
0.0
 20
0.0
 30
0.0
  3
ZKOPF-REAN
  1

  0
TEXT
  5
102D8
  8
035
 10
517.65315784783218
 20
512.84858999021753
 30
0.0
 40
3.5
  1
  
 41
0.7
 51
15.0
  0
TEXT
  5
102D9
  8
035
 10
517.65315784783218
 20
512.84858999021753
 30
0.0
 40
3.5
  1
  
 41
0.7
 51
15.0
  0
TEXT
  5
102DA
  8
035
 10
517.65315784783218
 20
512.84858999021753
 30
0.0
 40
3.5
  1
  
 41
0.7
 51
15.0
  0
TEXT
  5
102DB
  8
035
 10
517.65315784783218
 20
512.84858999021753
 30
0.0
 40
3.5
  1
  
 41
0.7
 51
15.0
  0
TEXT
  5
102DC
  8
035
 10
517.65315784783218
 20
512.84858999021753
 30
0.0
 40
3.5
  1
  
 41
0.7
 51
15.0
  0
TEXT
  5
102DD
  8
035
 10
517.65315784783218
 20
512.84858999021753
 30
0.0
 40
3.5
  1
  
 41
0.7
 51
15.0
  0
TEXT
  5
102DE
  8
035
 10
517.65315784783218
 20
512.84858999021753
 30
0.0
 40
3.5
  1
  
 41
0.7
 51
15.0
  0
TEXT
  5
102DF
  8
035
 10
517.65315784783218
 20
512.84858999021753
 30
0.0
 40
3.5
  1
  
 41
0.7
 51
15.0
  0
TEXT
  5
102E0
  8
035
 10
517.65315784783218
 20
512.84858999021753
 30
0.0
 40
3.5
  1
  
 41
0.7
 51
15.0
  0
TEXT
  5
102E1
  8
035
 10
517.65315784783218
 20
512.84858999021753
 30
0.0
 40
3.5
  1
  
 41
0.7
 51
15.0
  0
TEXT
  5
102E2
  8
035
 10
517.65315784783218
 20
512.84858999021753
 30
0.0
 40
3.5
  1
  
 41
0.7
 51
15.0
  0
TEXT
  5
102E3
  8
035
 10
517.65315784783218
 20
512.84858999021753
 30
0.0
 40
3.5
  1
  
 41
0.7
 51
15.0
  0
ATTDEF
  5
102E4
  8
0
 62
     4
 10
-15.166666666666661
 20
37.0
 30
0.0
 40
2.5
  1
Battlogg
  7
SCRIPTS
 72
     1
 11
-8.5
 21
37.0
 31
0.0
  3
Name des Konstrukteurs ?
  2
NAME
 70
     0
  0
POLYLINE
  5
102E5
  8
0
 62
     2
 66
     1
 10
0.0
 20
0.0
 30
0.0
  0
VERTEX
  5
105E9
  8
0
 62
     2
 10
-51.0
 20
0.0
 30
0.0
  0
VERTEX
  5
105EA
  8
0
 62
     2
 10
-51.0
 20
46.0
 30
0.0
  0
SEQEND
  5
105EB
  8
0
 62
     2
  0
POLYLINE
  5
102E6
  8
0
 62
     2
 66
     1
 10
0.0
 20
0.0
 30
0.0
  0
VERTEX
  5
105EC
  8
0
 62
     2
 10
-17.0
 20
9.0
 30
0.0
  0
VERTEX
  5
105ED
  8
0
 62
     2
 10
-17.0
 20
46.0
 30
0.0
  0
SEQEND
  5
105EE
  8
0
 62
     2
  0
POLYLINE
  5
102E7
  8
0
 62
     2
 66
     1
 10
0.0
 20
0.0
 30
0.0
  0
VERTEX
  5
105EF
  8
0
 62
     2
 10
-32.0
 20
26.0
 30
0.0
  0
VERTEX
  5
105F0
  8
0
 62
     2
 10
-32.0
 20
46.0
 30
0.0
  0
SEQEND
  5
105F1
  8
0
 62
     2
  0
POLYLINE
  5
102E8
  8
0
 62
     2
 66
     1
 10
0.0
 20
0.0
 30
0.0
  0
VERTEX
  5
105F2
  8
0
 62
     2
 10
-133.0
 20
41.0
 30
0.0
  0
VERTEX
  5
105F3
  8
0
 62
     2
 10
-92.0
 20
41.0
 30
0.0
  0
SEQEND
  5
105F4
  8
0
 62
     2
  0
POLYLINE
  5
102E9
  8
0
 62
     2
 66
     1
 10
0.0
 20
0.0
 30
0.0
  0
VERTEX
  5
105F5
  8
0
 62
     2
 10
-145.0
 20
0.0
 30
0.0
  0
VERTEX
  5
105F6
  8
0
 62
     2
 10
-145.0
 20
46.0
 30
0.0
  0
SEQEND
  5
105F7
  8
0
 62
     2
  0
POLYLINE
  5
102EA
  8
0
 62
     2
 66
     1
 10
0.0
 20
0.0
 30
0.0
  0
VERTEX
  5
105F8
  8
0
 62
     2
 10
-158.0
 20
0.0
 30
0.0
  0
VERTEX
  5
105F9
  8
0
 62
     2
 10
-158.0
 20
46.0
 30
0.0
  0
SEQEND
  5
105FA
  8
0
 62
     2
  0
LINE
  5
102EB
  8
0
 62
     2
 10
-200.0
 20
6.0
 30
0.0
 11
-133.0
 21
6.0
 31
0.0
  0
POLYLINE
  5
102EC
  8
0
 62
     4
 66
     1
 10
0.0
 20
0.0
 30
0.0
  0
VERTEX
  5
105FB
  8
0
 62
     4
 10
-200.0
 20
11.0
 30
0.0
  0
VERTEX
  5
105FC
  8
0
 62
     4
 10
-133.0
 20
11.0
 30
0.0
  0
SEQEND
  5
105FD
  8
0
 62
     4
  0
POLYLINE
  5
102ED
  8
0
 62
     4
 66
     1
 10
0.0
 20
0.0
 30
0.0
  0
VERTEX
  5
105FE
  8
0
 62
     4
 10
-200.0
 20
16.0
 30
0.0
  0
VERTEX
  5
105FF
  8
0
 62
     4
 10
-133.0
 20
16.0
 30
0.0
  0
SEQEND
  5
10600
  8
0
 62
     4
  0
POLYLINE
  5
102EE
  8
0
 62
     4
 66
     1
 10
0.0
 20
0.0
 30
0.0
  0
VERTEX
  5
10601
  8
0
 62
     4
 10
-200.0
 20
21.0
 30
0.0
  0
VERTEX
  5
10602
  8
0
 62
     4
 10
-133.0
 20
21.0
 30
0.0
  0
SEQEND
  5
10603
  8
0
 62
     4
  0
POLYLINE
  5
102EF
  8
0
 62
     4
 66
     1
 10
0.0
 20
0.0
 30
0.0
  0
VERTEX
  5
10604
  8
0
 62
     4
 10
-200.0
 20
26.0
 30
0.0
  0
VERTEX
  5
10605
  8
0
 62
     4
 10
-133.0
 20
26.0
 30
0.0
  0
SEQEND
  5
10606
  8
0
 62
     4
  0
POLYLINE
  5
102F0
  8
0
 62
     4
 66
     1
 10
0.0
 20
0.0
 30
0.0
  0
VERTEX
  5
10607
  8
0
 62
     4
 10
-200.0
 20
31.0
 30
0.0
  0
VERTEX
  5
10608
  8
0
 62
     4
 10
-133.0
 20
31.0
 30
0.0
  0
SEQEND
  5
10609
  8
0
 62
     4
  0
POLYLINE
  5
102F1
  8
0
 62
     4
 66
     1
 10
0.0
 20
0.0
 30
0.0
  0
VERTEX
  5
1060A
  8
0
 62
     4
 10
-200.0
 20
36.0
 30
0.0
  0
VERTEX
  5
1060B
  8
0
 62
     4
 10
-133.0
 20
36.0
 30
0.0
  0
SEQEND
  5
1060C
  8
0
 62
     4
  0
POLYLINE
  5
102F2
  8
0
 62
     4
 66
     1
 10
0.0
 20
0.0
 30
0.0
  0
VERTEX
  5
1060D
  8
0
 62
     4
 10
-200.0
 20
41.0
 30
0.0
  0
VERTEX
  5
1060E
  8
0
 62
     4
 10
-133.0
 20
41.0
 30
0.0
  0
SEQEND
  5
1060F
  8
0
 62
     4
  0
TEXT
  5
102F3
  8
0
 62
     4
 10
-50.0
 20
6.0
 30
0.0
 40
1.5
  1
Zeichn. Nr.
 51
15.0
  0
TEXT
  5
102F4
  8
0
 62
     4
 10
-50.0
 20
23.0
 30
0.0
 40
1.5
  1
Ersetzt durch:         Blatt
 51
15.0
  0
TEXT
  5
102F5
  8
0
 62
     4
 10
-50.0
 20
38.0
 30
0.0
 40
1.5
  1
Gezeichnet
 51
15.0
  0
TEXT
  5
102F6
  8
0
 62
     4
 10
-50.0
 20
27.0
 30
0.0
 40
1.5
  1
Gesehen
 51
15.0
  0
TEXT
  5
102F7
  8
0
 62
     4
 10
-31.0
 20
42.0
 30
0.0
 40
1.5
  1
Datum     Name
 51
15.0
  0
TEXT
  5
102F8
  8
0
 62
     4
 10
-91.0
 20
42.0
 30
0.0
 40
1.5
  1
Werkstoff:      Massstab:
 51
15.0
  0
TEXT
  5
102F9
  8
0
 62
     4
 10
-132.0
 20
23.0
 30
0.0
 40
1.5
  1
Benennung:
 51
15.0
  0
LINE
  5
102FA
  8
0
 62
     2
 10
-133.0
 20
33.0
 30
0.0
 11
-92.0
 21
33.0
 31
0.0
  0
TEXT
  5
102FB
  8
0
 62
     4
 10
-132.0
 20
39.0
 30
0.0
 40
1.5
  1
*)Lieferant darf ohne 
 51
15.0
  0
TEXT
  5
102FC
  8
0
 62
     4
 10
-132.0
 20
36.5
 30
0.0
 40
1.5
  1
 Ruecksprache nicht 
 51
15.0
  0
TEXT
  5
102FD
  8
0
 62
     4
 10
-132.0
 20
34.0
 30
0.0
 40
1.5
  1
 geaendert werden
 51
15.0
  0
TEXT
  5
102FE
  8
0
 62
     4
 10
-132.0
 20
30.0
 30
0.0
 40
1.5
  1
Zeichnung urheberrechtlich
 51
15.0
  0
TEXT
  5
102FF
  8
0
 62
     4
 10
-132.0
 20
27.5
 30
0.0
 40
1.5
  1
geschuetzt (DIN 34) (C)
 51
15.0
  0
TEXT
  5
10300
  8
0
 62
     4
 10
-50.0
 20
32.0
 30
0.0
 40
1.5
  1
Geprueft
 51
15.0
  0
TEXT
  5
10301
  8
0
 62
     4
 10
-50.0
 20
15.0
 30
0.0
 40
1.5
  1
Ersatz fuer:           von  Blatt
 51
15.0
  0
TEXT
  5
10302
  8
0
 62
     4
 10
-197.0
 20
1.0
 30
0.0
 40
1.5
  1
Ind.  Aenderung             Datum    Name
 51
15.0
  0
ATTDEF
  5
10303
  8
0
 62
     4
 10
-30.770833333333329
 20
37.0
 30
0.0
 40
2.5
  1
03.11.2004
 41
0.7
 51
15.0
 72
     1
 11
-24.5
 21
37.0
 31
0.0
  3
Datum der Zeichnung ?
  2
DATE
 70
     0
  0
ATTDEF
  5
10304
  8
0
 62
     4
 10
-80.5
 20
36.0
 30
0.0
 40
2.5
  1

 41
0.7
 51
15.0
 72
     1
 11
-80.5
 21
36.0
 31
0.0
  3
Aus welchem Werkstoff ?
  2
WERKSTOFF
 70
     0
  0
ATTDEF
  5
10305
  8
0
 62
     2
 10
-92.0
 20
12.5
 30
0.0
 40
5.0
  1

 41
0.7
 51
15.0
 72
     1
 11
-92.0
 21
12.5
 31
0.0
  3
Zeichnungsname ?
  2
BENENNUNG
 70
     0
  0
ATTDEF
  5
10306
  8
0
 62
     3
 10
-90.265456601878626
 20
21.082191450526931
 30
0.0
 40
3.5
  1
()
 41
0.7
 51
15.0
 72
     1
 11
-89.040456601878617
 21
21.082191450526931
 31
0.0
  3
Zu welchem Produkt ?
  2
TEIL
 70
     0
  0
ATTDEF
  5
10307
  8
0
 62
     3
 10
-20.550219082576412
 20
1.9765410165377939
 30
0.0
 40
3.5
  1

 41
0.7
 51
15.0
 72
     1
 11
-20.550219082576412
 21
1.9765410165377939
 31
0.0
  3
Zeichnungsnummer ?
  2
NUMMER
 70
     0
  0
ATTDEF
  5
10308
  8
0
 62
     2
 10
-62.89933830414278
 20
34.656056232934532
 30
0.0
 40
5.0
  1
1:1
 41
0.7
 51
15.0
 72
     1
 11
-60.566004970809438
 21
34.656056232934532
 31
0.0
  3
Hauptmassstab:
  2
MASS
 70
     0
  0
ATTDEF
  5
10309
  8
0
 62
     3
 10
-60.480700945980033
 20
28.210450539175302
 30
0.0
 40
3.5
  1

 41
0.7
 51
15.0
 72
     1
 11
-60.480700945980033
 21
28.210450539175302
 31
0.0
  3
Nebenmassstab:
  2
MASS2
 70
     0
  0
ATTDEF
  5
1030A
  8
0
 62
     4
 10
-81.0
 20
29.0
 30
0.0
 40
2.5
  1

 41
0.7
 51
15.0
 72
     1
 11
-81.0
 21
29.0
 31
0.0
  3
Werkstoffzusatz:
  2
TEIL
 70
     0
  0
ATTDEF
  5
1030B
  8
0
 62
     3
 10
-107.7114519405618
 20
59.004318747429437
 30
0.0
 40
3.5
  1
Freimasstoleranzen %%p0.1
 41
0.7
 51
15.0
  3
Freimasstoleranzen:
  2
TOL
 70
     0
  0
ATTDEF
  5
1030C
  8
0
 62
     3
 10
-107.7114519405618
 20
54.004318747429437
 30
0.0
 40
3.5
  1
nicht bemasste Radien R=0.2
 41
0.7
 51
15.0
  3
Nicht bemasste Radien:
  2
RADIEN
 70
     0
  0
ATTDEF
  5
1030D
  8
0
 62
     3
 10
-107.7114519405618
 20
49.004318747429437
 30
0.0
 40
3.5
  1
nicht bemasste Facetten 0.5 x 45%%D
 41
0.7
 51
15.0
  3
nicht bemasste Facetten:
  2
FACETTE
 70
     0
  0
POLYLINE
  5
1030E
  8
0
 62
     2
 66
     1
 10
0.0
 20
0.0
 30
0.0
  0
VERTEX
  5
10610
  8
0
 62
     2
 10
-191.0
 20
0.0
 30
0.0
  0
VERTEX
  5
10611
  8
0
 62
     2
 10
-191.0
 20
46.0
 30
0.0
  0
SEQEND
  5
10612
  8
0
 62
     2
  0
POLYLINE
  5
1030F
  8
0
 62
     2
 66
     1
 10
0.0
 20
0.0
 30
0.0
  0
VERTEX
  5
10613
  8
0
 62
     2
 10
-133.0
 20
0.0
 30
0.0
  0
VERTEX
  5
10614
  8
0
 62
     2
 10
-133.0
 20
46.0
 30
0.0
  0
SEQEND
  5
10615
  8
0
 62
     2
  0
POLYLINE
  5
10310
  8
0
 62
     2
 66
     1
 10
0.0
 20
0.0
 30
0.0
  0
VERTEX
  5
10616
  8
0
 62
     2
 10
-92.0
 20
26.0
 30
0.0
  0
VERTEX
  5
10617
  8
0
 62
     2
 10
-92.0
 20
46.0
 30
0.0
  0
SEQEND
  5
10618
  8
0
 62
     2
  0
POLYLINE
  5
10311
  8
0
 62
     2
 66
     1
 10
0.0
 20
0.0
 30
0.0
  0
VERTEX
  5
10619
  8
0
 62
     2
 10
-69.0
 20
26.0
 30
0.0
  0
VERTEX
  5
1061A
  8
0
 62
     2
 10
-69.0
 20
46.0
 30
0.0
  0
SEQEND
  5
1061B
  8
0
 62
     2
  0
ATTDEF
  5
10312
  8
0
 62
     4
 10
-197.1862672583826
 20
7.0
 30
0.0
 40
2.5
  1

 41
0.7
 51
15.0
  3
Index1:
  2
INDEX1
 70
     0
  0
ATTDEF
  5
10313
  8
0
 62
     4
 10
-190.34874260355031
 20
7.0
 30
0.0
 40
2.5
  1

 41
0.7
 51
15.0
  3
Aenderung1:
  2
A1
 70
     0
  0
ATTDEF
  5
10314
  8
0
 62
     4
 10
-157.34874260355031
 20
7.0
 30
0.0
 40
2.5
  1

 41
0.7
 51
15.0
  3
Datum1:
  2
DATUM1
 70
     0
  0
ATTDEF
  5
10315
  8
0
 62
     4
 10
-144.46499013806701
 20
7.0
 30
0.0
 40
2.5
  1

 41
0.7
 51
15.0
  3
Name1:
  2
NAME1
 70
     0
  0
ATTDEF
  5
10316
  8
0
 62
     4
 10
-197.1862672583826
 20
12.0
 30
0.0
 40
2.5
  1

 41
0.7
 51
15.0
  3
Index2:
  2
INDEX2
 70
     0
  0
ATTDEF
  5
10317
  8
0
 62
     4
 10
-190.34874260355031
 20
12.0
 30
0.0
 40
2.5
  1

 41
0.7
 51
15.0
  3
Aenderung2:
  2
A2
 70
     0
  0
ATTDEF
  5
10318
  8
0
 62
     4
 10
-157.34874260355031
 20
12.0
 30
0.0
 40
2.5
  1

 41
0.7
 51
15.0
  3
Datum2:
  2
DATUM2
 70
     0
  0
ATTDEF
  5
10319
  8
0
 62
     4
 10
-144.46499013806701
 20
12.0
 30
0.0
 40
2.5
  1

 41
0.7
 51
15.0
  3
Name2
  2
NAME2
 70
     0
  0
ATTDEF
  5
1031A
  8
0
 62
     4
 10
-197.1862672583826
 20
17.0
 30
0.0
 40
2.5
  1

 41
0.7
 51
15.0
  3
Index3:
  2
INDEX3
 70
     0
  0
ATTDEF
  5
1031B
  8
0
 62
     4
 10
-190.34874260355031
 20
17.0
 30
0.0
 40
2.5
  1

 41
0.7
 51
15.0
  3
Aenderung3
  2
A3
 70
     0
  0
ATTDEF
  5
1031C
  8
0
 62
     4
 10
-157.34874260355031
 20
17.0
 30
0.0
 40
2.5
  1

 41
0.7
 51
15.0
  3
Datum3:
  2
DATUM3
 70
     0
  0
ATTDEF
  5
1031D
  8
0
 62
     4
 10
-144.46499013806701
 20
17.0
 30
0.0
 40
2.5
  1

 41
0.7
 51
15.0
  3
Name3:
  2
NAME3
 70
     0
  0
ATTDEF
  5
1031E
  8
0
 62
     4
 10
-197.1862672583826
 20
22.0
 30
0.0
 40
2.5
  1

 41
0.7
 51
15.0
  3
Index4:
  2
INDEX4
 70
     0
  0
ATTDEF
  5
1031F
  8
0
 62
     4
 10
-190.34874260355031
 20
22.0
 30
0.0
 40
2.5
  1

 41
0.7
 51
15.0
  3
Aenderung4:
  2
A4
 70
     0
  0
ATTDEF
  5
10320
  8
0
 62
     4
 10
-157.34874260355031
 20
22.0
 30
0.0
 40
2.5
  1

 41
0.7
 51
15.0
  3
Datum4:
  2
DATUM4
 70
     0
  0
ATTDEF
  5
10321
  8
0
 62
     4
 10
-144.46499013806701
 20
22.0
 30
0.0
 40
2.5
  1

 41
0.7
 51
15.0
  3
Name4:
  2
NAME4
 70
     0
  0
ATTDEF
  5
10322
  8
0
 62
     4
 10
-197.1862672583826
 20
27.0
 30
0.0
 40
2.5
  1

 41
0.7
 51
15.0
  3
Index5:
  2
INDEX5
 70
     0
  0
ATTDEF
  5
10323
  8
0
 62
     4
 10
-190.34874260355031
 20
27.0
 30
0.0
 40
2.5
  1

 41
0.7
 51
15.0
  3
Aenderung5:
  2
A5
 70
     0
  0
ATTDEF
  5
10324
  8
0
 62
     4
 10
-157.34874260355031
 20
27.0
 30
0.0
 40
2.5
  1

 41
0.7
 51
15.0
  3
Datum5:
  2
DATUM5
 70
     0
  0
ATTDEF
  5
10325
  8
0
 62
     4
 10
-144.46499013806701
 20
27.0
 30
0.0
 40
2.5
  1

 41
0.7
 51
15.0
  3
Name5
  2
NAME5
 70
     0
  0
ATTDEF
  5
10326
  8
0
 62
     4
 10
-197.1862672583826
 20
32.0
 30
0.0
 40
2.5
  1

 41
0.7
 51
15.0
  3
Index6:
  2
INDEX6
 70
     0
  0
ATTDEF
  5
10327
  8
0
 62
     4
 10
-190.34874260355031
 20
32.0
 30
0.0
 40
2.5
  1

 41
0.7
 51
15.0
  3
Aenderung6:
  2
A6
 70
     0
  0
ATTDEF
  5
10328
  8
0
 62
     4
 10
-157.34874260355031
 20
32.0
 30
0.0
 40
2.5
  1

 41
0.7
 51
15.0
  3
Datum6:
  2
DATUM6
 70
     0
  0
ATTDEF
  5
10329
  8
0
 62
     4
 10
-144.46499013806701
 20
32.0
 30
0.0
 40
2.5
  1

 41
0.7
 51
15.0
  3
Name6:
  2
NAME6
 70
     0
  0
ATTDEF
  5
1032A
  8
0
 62
     4
 10
-197.1862672583826
 20
37.0
 30
0.0
 40
2.5
  1

 41
0.7
 51
15.0
  3
Index7:
  2
INDEX7
 70
     0
  0
ATTDEF
  5
1032B
  8
0
 62
     4
 10
-190.34874260355031
 20
37.0
 30
0.0
 40
2.5
  1

 41
0.7
 51
15.0
  3
Aenderung7:
  2
A7
 70
     0
  0
ATTDEF
  5
1032C
  8
0
 62
     4
 10
-157.34874260355031
 20
37.0
 30
0.0
 40
2.5
  1

 41
0.7
 51
15.0
  3
Datum7:
  2
DATUM7
 70
     0
  0
ATTDEF
  5
1032D
  8
0
 62
     4
 10
-144.46499013806701
 20
37.0
 30
0.0
 40
2.5
  1

 41
0.7
 51
15.0
  3
Name7:
  2
NAME7
 70
     0
  0
ATTDEF
  5
1032E
  8
0
 62
     4
 10
-197.1862672583826
 20
42.0
 30
0.0
 40
2.5
  1

 41
0.7
 51
15.0
  3
Index8:
  2
INDEX8
 70
     0
  0
ATTDEF
  5
1032F
  8
0
 62
     4
 10
-190.34874260355031
 20
42.0
 30
0.0
 40
2.5
  1

 41
0.7
 51
15.0
  3
Aenderung8:
  2
A8
 70
     0
  0
ATTDEF
  5
10330
  8
0
 62
     4
 10
-157.34874260355031
 20
42.0
 30
0.0
 40
2.5
  1

 41
0.7
 51
15.0
  3
Datum8:
  2
DATUM8
 70
     0
  0
ATTDEF
  5
10331
  8
0
 62
     4
 10
-144.46499013806701
 20
42.0
 30
0.0
 40
2.5
  1

 41
0.7
 51
15.0
  3
Name8:
  2
NAME8
 70
     0
  0
POLYLINE
  5
10332
  8
0
 62
     2
 66
     1
 10
0.0
 20
0.0
 30
0.0
  0
VERTEX
  5
1061C
  8
0
 62
     2
 10
0.0
 20
0.0
 30
0.0
  0
VERTEX
  5
1061D
  8
0
 62
     2
 10
0.0
 20
46.0
 30
0.0
  0
SEQEND
  5
1061E
  8
0
 62
     2
  0
POLYLINE
  5
10333
  8
0
 62
     2
 66
     1
 10
0.0
 20
0.0
 30
0.0
  0
VERTEX
  5
1061F
  8
0
 62
     2
 10
-200.0
 20
46.0
 30
0.0
  0
VERTEX
  5
10620
  8
0
 62
     2
 10
-200.0
 20
0.0
 30
0.0
  0
SEQEND
  5
10621
  8
0
 62
     2
  0
POLYLINE
  5
10334
  8
0
 62
     2
 66
     1
 10
0.0
 20
0.0
 30
0.0
  0
VERTEX
  5
10622
  8
0
 62
     2
 10
0.0
 20
9.0
 30
0.0
  0
VERTEX
  5
10623
  8
0
 62
     2
 10
-133.0
 20
9.0
 30
0.0
  0
SEQEND
  5
10624
  8
0
 62
     2
  0
POLYLINE
  5
10335
  8
0
 62
     2
 66
     1
 10
0.0
 20
0.0
 30
0.0
  0
VERTEX
  5
10625
  8
0
 62
     2
 10
0.0
 20
18.0
 30
0.0
  0
VERTEX
  5
10626
  8
0
 62
     2
 10
-51.0
 20
18.0
 30
0.0
  0
SEQEND
  5
10627
  8
0
 62
     2
  0
POLYLINE
  5
10336
  8
0
 62
     2
 66
     1
 10
0.0
 20
0.0
 30
0.0
  0
VERTEX
  5
10628
  8
0
 62
     2
 10
0.0
 20
26.0
 30
0.0
  0
VERTEX
  5
10629
  8
0
 62
     2
 10
-133.0
 20
26.0
 30
0.0
  0
SEQEND
  5
1062A
  8
0
 62
     2
  0
POLYLINE
  5
10337
  8
0
 62
     2
 66
     1
 10
0.0
 20
0.0
 30
0.0
  0
VERTEX
  5
1062B
  8
0
 62
     2
 10
0.0
 20
31.0
 30
0.0
  0
VERTEX
  5
1062C
  8
0
 62
     2
 10
-51.0
 20
31.0
 30
0.0
  0
SEQEND
  5
1062D
  8
0
 62
     2
  0
POLYLINE
  5
10338
  8
0
 62
     2
 66
     1
 10
0.0
 20
0.0
 30
0.0
  0
VERTEX
  5
1062E
  8
0
 62
     2
 10
0.0
 20
36.0
 30
0.0
  0
VERTEX
  5
1062F
  8
0
 62
     2
 10
-51.0
 20
36.0
 30
0.0
  0
SEQEND
  5
10630
  8
0
 62
     2
  0
POLYLINE
  5
10339
  8
0
 62
     2
 66
     1
 10
0.0
 20
0.0
 30
0.0
  0
VERTEX
  5
10631
  8
0
 62
     2
 10
0.0
 20
41.0
 30
0.0
  0
VERTEX
  5
10632
  8
0
 62
     2
 10
-51.0
 20
41.0
 30
0.0
  0
SEQEND
  5
10633
  8
0
 62
     2
  0
POLYLINE
  5
1033A
  8
0
 62
     2
 66
     1
 10
0.0
 20
0.0
 30
0.0
  0
VERTEX
  5
10634
  8
0
 62
     2
 10
0.0
 20
46.0
 30
0.0
  0
VERTEX
  5
10635
  8
0
 62
     2
 10
-200.0
 20
46.0
 30
0.0
  0
SEQEND
  5
10636
  8
0
 62
     2
  0
TEXT
  5
1033B
  8
035
 10
517.65315784783218
 20
512.84858999021753
 30
0.0
 40
3.5
  1
  
 41
0.7
 51
15.0
  0
LINE
  5
1033C
  8
05
 10
-109.78683304835209
 20
1.9918663370028851
 30
0.0
 11
-107.1218538217631
 21
1.9918663370028851
 31
0.0
  0
LINE
  5
1033D
  8
05
 10
-109.78683304835209
 20
1.9918663370028851
 30
0.0
 11
-108.88484451080581
 21
5.7212269608096227
 31
0.0
  0
LINE
  5
1033E
  8
05
 10
-97.883056873532695
 20
2.941046471765929
 30
0.0
 11
-97.741767658313606
 21
3.5252206756179341
 31
0.0
  0
LINE
  5
1033F
  8
05
 10
-100.62675264869139
 20
1.985934361472224
 30
0.0
 11
-99.739169578347628
 21
5.6557341594846191
 31
0.0
  0
LINE
  5
10340
  8
05
 10
-101.6525702459091
 20
1.991866337002882
 30
0.0
 11
-103.7779290465684
 21
3.448339754567221
 31
0.0
  0
LINE
  5
10341
  8
05
 10
-104.57533813105159
 20
1.9918663370028851
 30
0.0
 11
-106.7597940825441
 21
3.48883805970712
 31
0.0
  0
LINE
  5
10342
  8
05
 10
-107.1218538217631
 20
1.9918663370028851
 30
0.0
 11
-106.7597940825441
 21
3.48883805970712
 31
0.0
  0
LINE
  5
10343
  8
05
 10
-78.264921974117073
 20
1.9918663370018479
 30
0.0
 11
-80.343243437722805
 21
4.2570158836873508
 31
0.0
  0
LINE
  5
10344
  8
05
 10
-75.015520852942274
 20
1.991866337002878
 30
0.0
 11
-74.129372498752886
 21
5.655734159485319
 31
0.0
  0
LINE
  5
10345
  8
05
 10
-80.891095773025427
 20
1.9918663370025049
 30
0.0
 11
-80.343243437723174
 21
4.2570158836866483
 31
0.0
  0
LINE
  5
10346
  8
05
 10
-83.271451166946505
 20
1.9918663370025049
 30
0.0
 11
-82.385302812758056
 21
5.6557341594842887
 31
0.0
  0
LINE
  5
10347
  8
05
 10
-86.159077321275419
 20
5.6557341594846164
 30
0.0
 11
-84.240667666742979
 21
1.991866337002882
 31
0.0
  0
LINE
  5
10348
  8
05
 10
-92.656302414444966
 20
1.9918663370025049
 30
0.0
 11
-89.20289518730408
 21
5.6557341594846164
 31
0.0
  0
LINE
  5
10349
  8
05
 10
-99.739169578347628
 20
5.6557341594846191
 30
0.0
 11
-92.981553597599401
 21
5.655734159485319
 31
0.0
  0
LINE
  5
1034A
  8
05
 10
-97.554767568331016
 20
4.2983910022902228
 30
0.0
 11
-97.430100730957875
 21
4.8138383445134698
 31
0.0
  0
LINE
  5
1034B
  8
05
 10
-97.741767658313975
 20
3.5252206756176032
 30
0.0
 11
-94.448619706812366
 21
3.5252206756179341
 31
0.0
  0
LINE
  5
1034C
  8
05
 10
-97.554767568330632
 20
4.2983910022905496
 30
0.0
 11
-94.261619616829677
 21
4.2983910022902228
 31
0.0
  0
ARC
  5
1034D
  8
05
 10
-103.576800163518
 20
1.0484882972761149
 30
0.0
 40
4.6037310052774787
 50
69.562986325370431
 51
81.731692240168215
  0
ARC
  5
1034E
  8
05
 10
-104.3603333216701
 20
9.6953157949000115
 30
0.0
 40
6.2740660171972342
 50
275.32627756006741
 51
289.52599257429313
  0
ARC
  5
1034F
  8
05
 10
-102.5940664039618
 20
4.9720770628631987
 30
0.0
 40
1.2327170994611441
 50
286.58188649066301
 51
338.14695643463642
  0
ARC
  5
10350
  8
05
 10
-102.0219367310586
 20
4.683869386119464
 30
0.0
 40
0.5972269208190048
 50
340.39974372020578
 51
51.414227838870453
  0
ARC
  5
10351
  8
05
 10
-102.9254509671164
 20
3.5630113224345119
 30
0.0
 40
2.0377001943981661
 50
51.536856151961693
 51
62.015041241413471
  0
ARC
  5
10352
  8
05
 10
-105.569754799183
 20
-23.421023874283328
 30
0.0
 40
29.146566368908172
 50
84.676683437458124
 51
90.985976470691384
  0
ARC
  5
10353
  8
05
 10
-105.66275477025729
 20
8.0454129654963822
 30
0.0
 40
4.086755202961017
 50
273.84453704372032
 51
284.46462793712249
  0
ARC
  5
10354
  8
05
 10
-105.4613562964997
 20
1.639787309913312
 30
0.0
 40
3.3174382729703238
 50
71.645510386436442
 51
85.712787694453695
  0
ARC
  5
10355
  8
05
 10
-105.26614317300449
 20
5.6230814654518531
 30
0.0
 40
1.6569466452348129
 50
292.13000306555853
 51
304.02720735554431
  0
ARC
  5
10356
  8
05
 10
-104.53310252415289
 20
4.4967315408467341
 30
0.0
 40
0.3140859843502878
 50
308.18397114713127
 51
68.249047543413937
  0
LINE
  5
10357
  8
05
 10
-106.68286465598079
 20
3.9678543882207711
 30
0.0
 11
-106.4458190427289
 21
4.9479428697369414
 31
0.0
  0
LINE
  5
10358
  8
05
 10
-106.68286465598079
 20
3.9678543882210979
 30
0.0
 11
-105.3887399206229
 21
3.9678543882214292
 31
0.0
  0
LINE
  5
10359
  8
05
 10
-106.4458190427289
 20
4.9479428697369414
 30
0.0
 11
-105.21335733083011
 21
4.9479428697372683
 31
0.0
  0
LINE
  5
1035A
  8
05
 10
-108.88484451080581
 20
5.7212269608096227
 30
0.0
 11
-106.0016110672158
 21
5.7212269608096227
 31
0.0
  0
LINE
  5
1035B
  8
05
 10
-93.185175733272004
 20
4.8138383445131403
 30
0.0
 11
-92.981553597599401
 21
5.655734159485319
 31
0.0
  0
LINE
  5
1035C
  8
05
 10
-97.430100730958173
 20
4.8138383445131403
 30
0.0
 11
-93.185175733271606
 21
4.8138383445134698
 31
0.0
  0
LINE
  5
1035D
  8
05
 10
-94.448619706812366
 20
3.5252206756176032
 30
0.0
 11
-94.261619616829961
 21
4.2983910022905496
 31
0.0
  0
LINE
  5
1035E
  8
05
 10
-77.190213188165629
 20
3.465138938138046
 30
0.0
 11
-76.660392669483571
 21
5.6557341594846164
 31
0.0
  0
LINE
  5
1035F
  8
05
 10
-81.626596326446361
 20
5.6557341594842887
 30
0.0
 11
-81.629003084324466
 21
5.6583572698222611
 31
0.0
  0
LINE
  5
10360
  8
05
 10
-76.660392669483571
 20
5.6557341594846164
 30
0.0
 11
-74.129372498752886
 21
5.655734159485319
 31
0.0
  0
LINE
  5
10361
  8
05
 10
-77.190213188165629
 20
3.465138938138046
 30
0.0
 11
-79.200129519411831
 21
5.6557341594846164
 31
0.0
  0
LINE
  5
10362
  8
05
 10
-82.385302812758056
 20
5.6557341594842887
 30
0.0
 11
-79.200129519411831
 21
5.6557341594846164
 31
0.0
  0
LINE
  5
10363
  8
05
 10
-89.117244030689307
 20
3.2846780332485639
 30
0.0
 11
-87.581878719349504
 21
3.2846780332485599
 31
0.0
  0
LINE
  5
10364
  8
05
 10
-89.117244030689307
 20
3.2846780332485639
 30
0.0
 11
-88.130195927732785
 21
4.3318796940438018
 31
0.0
  0
LINE
  5
10365
  8
05
 10
-88.130195927733425
 20
4.3318796940431454
 30
0.0
 11
-87.581878719349135
 21
3.2846780332485599
 31
0.0
  0
LINE
  5
10366
  8
05
 10
-89.20289518730408
 20
5.6557341594846164
 30
0.0
 11
-86.159077321275419
 21
5.6557341594846164
 31
0.0
  0
LINE
  5
10367
  8
05
 10
-90.335793790522885
 20
1.9918663370025049
 30
0.0
 11
-89.910780799877074
 21
2.4427808449485511
 31
0.0
  0
LINE
  5
10368
  8
05
 10
-100.6253179325368
 20
1.9918663370025089
 30
0.0
 11
-93.867701951788149
 21
1.991866337003209
 31
0.0
  0
LINE
  5
10369
  8
05
 10
-97.883056873532041
 20
2.9410464717656022
 30
0.0
 11
-93.638131875846156
 21
2.941046471765929
 31
0.0
  0
LINE
  5
1036A
  8
05
 10
-104.57533813105159
 20
1.9918663370028851
 30
0.0
 11
-101.58288153919079
 21
1.991866337002882
 31
0.0
  0
LINE
  5
1036B
  8
05
 10
-92.656302414444966
 20
1.9918663370025049
 30
0.0
 11
-90.335793790522885
 21
1.9918663370025049
 31
0.0
  0
LINE
  5
1036C
  8
05
 10
-93.869136667943124
 20
1.985934361472224
 30
0.0
 11
-93.638131875846454
 21
2.941046471765929
 31
0.0
  0
LINE
  5
1036D
  8
05
 10
-78.264921974116689
 20
1.9918663370021781
 30
0.0
 11
-75.015520852942657
 21
1.9918663370025049
 31
0.0
  0
LINE
  5
1036E
  8
05
 10
-83.271451166946505
 20
1.9918663370025049
 30
0.0
 11
-80.891095773025427
 21
1.9918663370025049
 31
0.0
  0
LINE
  5
1036F
  8
05
 10
-89.910780799877074
 20
2.4427808449485511
 30
0.0
 11
-87.141059406969234
 21
2.4427808449482198
 31
0.0
  0
LINE
  5
10370
  8
05
 10
-87.141059406969234
 20
2.442780844948877
 30
0.0
 11
-86.904959529102058
 21
1.991866337002882
 31
0.0
  0
LINE
  5
10371
  8
05
 10
-86.904959529102058
 20
1.991866337002882
 30
0.0
 11
-84.240667666742979
 21
1.991866337002882
 31
0.0
  0
ENDBLK
  5
10373
  8
0
  0
BLOCK
  8
0
  2
A$C7E33214A
 70
     0
 10
0.0
 20
0.0
 30
0.0
  3
A$C7E33214A
  1

  0
INSERT
  5
10375
  8
035
 66
     1
  2
ZKOPF-REAN
 10
199.999999977676
 20
-0.0000001398551603
 30
0.0
  0
ATTRIB
  5
10376
  8
0
 62
     4
 10
184.83333331100931
 20
36.99999986014484
 30
0.0
 40
2.5
  1
Battlogg
  7
SCRIPTS
 72
     1
 11
191.499999977676
 21
36.99999986014484
 31
0.0
  2
NAME
 70
     0
  0
ATTRIB
  5
10377
  8
0
 62
     4
 10
169.2291666443426
 20
36.99999986014484
 30
0.0
 40
2.5
  1
08.11.2004
 41
0.7
 51
15.0
 72
     1
 11
175.499999977676
 21
36.99999986014484
 31
0.0
  2
DATE
 70
     0
  0
ATTRIB
  5
10378
  8
0
 62
     4
 10
119.499999977676
 20
35.99999986014484
 30
0.0
 40
2.5
  1

 41
0.7
 51
15.0
 72
     1
 11
119.499999977676
 21
35.99999986014484
 31
0.0
  2
WERKSTOFF
 70
     0
  0
ATTRIB
  5
10379
  8
0
 62
     2
 10
96.916666644342669
 20
12.49999986014484
 30
0.0
 40
5.0
  1
NYS 217
 41
0.7
 51
15.0
 72
     1
 11
107.999999977676
 21
12.49999986014484
 31
0.0
  2
BENENNUNG
 70
     0
  0
ATTRIB
  5
1037A
  8
0
 62
     3
 10
93.809543375797347
 20
21.082191310671782
 30
0.0
 40
3.5
  1
1/4" Phone Jack
 41
0.7
 51
15.0
 72
     1
 11
110.9595433757973
 21
21.082191310671782
 31
0.0
  2
TEIL
 70
     0
  0
ATTRIB
  5
1037B
  8
0
 62
     3
 10
164.7497808950996
 20
1.976540876682634
 30
0.0
 40
3.5
  1
3102 ST 22 02
 41
0.7
 51
15.0
 72
     1
 11
179.44978089509959
 21
1.976540876682634
 31
0.0
  2
NUMMER
 70
     0
  0
ATTRIB
  5
1037C
  8
0
 62
     2
 10
136.5173283401999
 20
34.656056093079371
 30
0.0
 40
5.0
  1
2:1
 41
0.7
 51
15.0
 72
     1
 11
139.4339950068665
 21
34.656056093079371
 31
0.0
  2
MASS
 70
     0
  0
ATTRIB
  5
1037D
  8
0
 62
     3
 10
139.51929903169591
 20
28.210450399320141
 30
0.0
 40
3.5
  1

 41
0.7
 51
15.0
 72
     1
 11
139.51929903169591
 21
28.210450399320141
 31
0.0
  2
MASS2
 70
     0
  0
ATTRIB
  5
1037E
  8
0
 62
     4
 10
118.999999977676
 20
28.99999986014484
 30
0.0
 40
2.5
  1

 41
0.7
 51
15.0
 72
     1
 11
118.999999977676
 21
28.99999986014484
 31
0.0
  2
TEIL
 70
     0
  0
ATTRIB
  5
1037F
  8
0
 62
     3
 10
92.288548037114126
 20
59.004318607574277
 30
0.0
 40
3.5
  1

 41
0.7
 51
15.0
  2
TOL
 70
     0
  0
ATTRIB
  5
10380
  8
0
 62
     3
 10
92.288548037114126
 20
54.004318607574277
 30
0.0
 40
3.5
  1

 41
0.7
 51
15.0
  2
RADIEN
 70
     0
  0
ATTRIB
  5
10381
  8
0
 62
     3
 10
92.288548037114126
 20
49.004318607574277
 30
0.0
 40
3.5
  1

 41
0.7
 51
15.0
  2
FACETTE
 70
     0
  0
ATTRIB
  5
10382
  8
0
 62
     4
 10
2.8137327192933408
 20
6.9999998601448388
 30
0.0
 40
2.5
  1
A
 41
0.7
 51
15.0
  2
INDEX1
 70
     0
  0
ATTRIB
  5
10383
  8
0
 62
     4
 10
9.6512573741256915
 20
6.9999998601448388
 30
0.0
 40
2.5
  1
Tear Drop
 41
0.7
 51
15.0
  2
A1
 70
     0
  0
ATTRIB
  5
10384
  8
0
 62
     4
 10
42.651257374125692
 20
6.9999998601448388
 30
0.0
 40
2.5
  1
26.06..96
 41
0.7
 51
15.0
  2
DATUM1
 70
     0
  0
ATTRIB
  5
10385
  8
0
 62
     4
 10
55.535009839608961
 20
6.9999998601448388
 30
0.0
 40
2.5
  1
Batlog
 41
0.7
 51
15.0
  2
NAME1
 70
     0
  0
ATTRIB
  5
10386
  8
0
 62
     4
 10
2.8137327192933408
 20
11.99999986014484
 30
0.0
 40
2.5
  1
B
 41
0.7
 51
15.0
  2
INDEX2
 70
     0
  0
ATTRIB
  5
10387
  8
0
 62
     4
 10
9.6512573741256915
 20
11.99999986014484
 30
0.0
 40
2.5
  1
6 x %%c1.50 (1.30)
 41
0.7
 51
15.0
  2
A2
 70
     0
  0
ATTRIB
  5
10388
  8
0
 62
     4
 10
42.651257374125692
 20
11.99999986014484
 30
0.0
 40
2.5
  1
31.10.96
 41
0.7
 51
15.0
  2
DATUM2
 70
     0
  0
ATTRIB
  5
10389
  8
0
 62
     4
 10
55.535009839608961
 20
11.99999986014484
 30
0.0
 40
2.5
  1
Batlog
 41
0.7
 51
15.0
  2
NAME2
 70
     0
  0
ATTRIB
  5
1038A
  8
0
 62
     4
 10
2.8137327192933408
 20
16.99999986014484
 30
0.0
 40
2.5
  1

 41
0.7
 51
15.0
  2
INDEX3
 70
     0
  0
ATTRIB
  5
1038B
  8
0
 62
     4
 10
9.6512573741256915
 20
16.99999986014484
 30
0.0
 40
2.5
  1

 41
0.7
 51
15.0
  2
A3
 70
     0
  0
ATTRIB
  5
1038C
  8
0
 62
     4
 10
42.651257374125692
 20
16.99999986014484
 30
0.0
 40
2.5
  1

 41
0.7
 51
15.0
  2
DATUM3
 70
     0
  0
ATTRIB
  5
1038D
  8
0
 62
     4
 10
55.535009839608961
 20
16.99999986014484
 30
0.0
 40
2.5
  1

 41
0.7
 51
15.0
  2
NAME3
 70
     0
  0
ATTRIB
  5
1038E
  8
0
 62
     4
 10
2.8137327192933408
 20
21.99999986014484
 30
0.0
 40
2.5
  1

 41
0.7
 51
15.0
  2
INDEX4
 70
     0
  0
ATTRIB
  5
1038F
  8
0
 62
     4
 10
9.6512573741256915
 20
21.99999986014484
 30
0.0
 40
2.5
  1

 41
0.7
 51
15.0
  2
A4
 70
     0
  0
ATTRIB
  5
10390
  8
0
 62
     4
 10
42.651257374125692
 20
21.99999986014484
 30
0.0
 40
2.5
  1

 41
0.7
 51
15.0
  2
DATUM4
 70
     0
  0
ATTRIB
  5
10391
  8
0
 62
     4
 10
55.535009839608961
 20
21.99999986014484
 30
0.0
 40
2.5
  1

 41
0.7
 51
15.0
  2
NAME4
 70
     0
  0
ATTRIB
  5
10392
  8
0
 62
     4
 10
2.8137327192933408
 20
26.99999986014484
 30
0.0
 40
2.5
  1

 41
0.7
 51
15.0
  2
INDEX5
 70
     0
  0
ATTRIB
  5
10393
  8
0
 62
     4
 10
9.6512573741256915
 20
26.99999986014484
 30
0.0
 40
2.5
  1

 41
0.7
 51
15.0
  2
A5
 70
     0
  0
ATTRIB
  5
10394
  8
0
 62
     4
 10
42.651257374125692
 20
26.99999986014484
 30
0.0
 40
2.5
  1

 41
0.7
 51
15.0
  2
DATUM5
 70
     0
  0
ATTRIB
  5
10395
  8
0
 62
     4
 10
55.535009839608961
 20
26.99999986014484
 30
0.0
 40
2.5
  1

 41
0.7
 51
15.0
  2
NAME5
 70
     0
  0
ATTRIB
  5
10396
  8
0
 62
     4
 10
2.8137327192933408
 20
31.99999986014484
 30
0.0
 40
2.5
  1

 41
0.7
 51
15.0
  2
INDEX6
 70
     0
  0
ATTRIB
  5
10397
  8
0
 62
     4
 10
9.6512573741256915
 20
31.99999986014484
 30
0.0
 40
2.5
  1

 41
0.7
 51
15.0
  2
A6
 70
     0
  0
ATTRIB
  5
10398
  8
0
 62
     4
 10
42.651257374125692
 20
31.99999986014484
 30
0.0
 40
2.5
  1

 41
0.7
 51
15.0
  2
DATUM6
 70
     0
  0
ATTRIB
  5
10399
  8
0
 62
     4
 10
55.535009839608961
 20
31.99999986014484
 30
0.0
 40
2.5
  1

 41
0.7
 51
15.0
  2
NAME6
 70
     0
  0
ATTRIB
  5
1039A
  8
0
 62
     4
 10
2.8137327192933408
 20
36.99999986014484
 30
0.0
 40
2.5
  1

 41
0.7
 51
15.0
  2
INDEX7
 70
     0
  0
ATTRIB
  5
1039B
  8
0
 62
     4
 10
9.6512573741256915
 20
36.99999986014484
 30
0.0
 40
2.5
  1

 41
0.7
 51
15.0
  2
A7
 70
     0
  0
ATTRIB
  5
1039C
  8
0
 62
     4
 10
42.651257374125692
 20
36.99999986014484
 30
0.0
 40
2.5
  1

 41
0.7
 51
15.0
  2
DATUM7
 70
     0
  0
ATTRIB
  5
1039D
  8
0
 62
     4
 10
55.535009839608961
 20
36.99999986014484
 30
0.0
 40
2.5
  1

 41
0.7
 51
15.0
  2
NAME7
 70
     0
  0
ATTRIB
  5
1039E
  8
0
 62
     4
 10
2.8137327192933408
 20
41.99999986014484
 30
0.0
 40
2.5
  1

 41
0.7
 51
15.0
  2
INDEX8
 70
     0
  0
ATTRIB
  5
1039F
  8
0
 62
     4
 10
9.6512573741256915
 20
41.99999986014484
 30
0.0
 40
2.5
  1

 41
0.7
 51
15.0
  2
A8
 70
     0
  0
ATTRIB
  5
103A0
  8
0
 62
     4
 10
42.651257374125692
 20
41.99999986014484
 30
0.0
 40
2.5
  1

 41
0.7
 51
15.0
  2
DATUM8
 70
     0
  0
ATTRIB
  5
103A1
  8
0
 62
     4
 10
55.535009839608961
 20
41.99999986014484
 30
0.0
 40
2.5
  1

 41
0.7
 51
15.0
  2
NAME8
 70
     0
  0
SEQEND
  5
103A2
  8
035
  0
ENDBLK
  5
103A4
  8
0
  0
ENDSEC
  0
SECTION
  2
ENTITIES
  0
INSERT
  5
30
  8
ASHADE
 62
     1
  2
AVE_RENDER
 10
0.0
 20
0.0
 30
0.0
1001
AVE_RENDER
1002
{
1070
     2
1000
Pref
1070
    40
1070
    20
1070
     1
1070
     0
1000

1070
    10
1070
     0
1070
    30
1040
1.0
1070
     1
1040
0.3
1040
0.7
1040
0.0
1040
10.0
1010
-1.0
1020
-1.0
1030
-1.0
1040
0.3
1070
    49
1002
}
  0
INSERT
  5
31
  8
ASHADE
 62
     3
  2
AVE_RENDER
 10
0.0
 20
0.0
 30
0.0
1001
AVE_RENDER
1002
{
1070
     0
1000
Full Opt
1070
     0
1070
     1
1070
     1
1070
     1
1070
     0
1070
     0
1070
     0
1070
     1
1070
     1
1040
0.0001
1040
0.0001
1002
}
  0
INSERT
  5
32
  8
ASHADE
 62
     4
  2
AVE_RENDER
 10
0.0
 20
0.0
 30
0.0
1001
AVE_RENDER
1002
{
1070
     0
1000
Quick Opt
1070
     0
1070
     1
1070
     1
1070
     1
1070
     1
1070
     0
1070
     1
1002
}
  0
INSERT
  5
36
  8
05
  2
NT_1
 10
98.709341459344387
 20
147.8406513925157
 30
0.0
 41
32.616999881868431
 42
-6.863009327815802
 43
32.616999881868431
  0
POLYLINE
  5
1833
  8
RAHMEN
 66
     1
 10
0.0
 20
0.0
 30
0.0
 70
     1
  0
VERTEX
  5
10401
  8
RAHMEN
 10
205.0
 20
5.0
 30
0.0
  0
VERTEX
  5
10402
  8
RAHMEN
 10
205.0
 20
292.0
 30
0.0
  0
VERTEX
  5
10403
  8
RAHMEN
 10
5.0
 20
292.0
 30
0.0
  0
VERTEX
  5
10404
  8
RAHMEN
 10
5.0
 20
5.0
 30
0.0
  0
SEQEND
  5
10405
  8
RAHMEN
  0
POLYLINE
  5
1839
  8
RAHMEN
 62
     7
 66
     1
 10
0.0
 20
0.0
 30
0.0
  0
VERTEX
  5
10406
  8
RAHMEN
 62
     7
 10
210.0
 20
0.0
 30
0.0
  0
VERTEX
  5
10407
  8
RAHMEN
 62
     7
 10
210.0
 20
297.0
 30
0.0
  0
VERTEX
  5
10408
  8
RAHMEN
 62
     7
 10
0.0
 20
297.0
 30
0.0
  0
VERTEX
  5
10409
  8
RAHMEN
 62
     7
 10
0.0
 20
0.0
 30
0.0
  0
VERTEX
  5
1040A
  8
RAHMEN
 62
     7
 10
210.0
 20
0.0
 30
0.0
  0
SEQEND
  5
1040B
  8
RAHMEN
 62
     7
  0
LINE
  5
1887
  8
BEM1
 10
140.96121861412229
 20
213.15190864621789
 30
0.0
 11
128.2425557986935
 21
213.15190864621789
 31
0.0
  0
LINE
  5
1888
  8
BEM1
 10
137.18345593538029
 20
243.3180231809514
 30
0.0
 11
128.36343838711511
 21
243.3180231809514
 31
0.0
  0
LINE
  5
1889
  8
BEM1
 10
129.22863886867211
 20
213.15190864621789
 30
0.0
 11
129.22863886867211
 21
239.8180231809514
 31
0.0
  0
POLYLINE
  5
188A
  8
05
 66
     1
 10
0.0
 20
0.0
 30
0.0
  0
VERTEX
  5
1040C
  8
05
 10
87.432638886984023
 20
243.3180231809514
 30
0.0
  0
VERTEX
  5
1040D
  8
05
 10
89.732638886983963
 20
243.3180231809514
 30
0.0
  0
VERTEX
  5
1040E
  8
05
 10
89.732638886983963
 20
257.91802318095142
 30
0.0
  0
VERTEX
  5
1040F
  8
05
 10
94.232638886983977
 20
257.91802318095142
 30
0.0
  0
VERTEX
  5
10410
  8
05
 10
94.232638886983977
 20
227.3180231809514
 30
0.0
  0
VERTEX
  5
10411
  8
05
 10
87.432638886984023
 20
227.3180231809514
 30
0.0
  0
SEQEND
  5
10412
  8
05
  0
POLYLINE
  5
1892
  8
05
 66
     1
 10
0.0
 20
0.0
 30
0.0
  0
VERTEX
  5
10413
  8
05
 10
49.332638886984
 20
230.3180231809514
 30
0.0
  0
VERTEX
  5
10414
  8
05
 10
49.332638886983879
 20
257.91802318095142
 30
0.0
  0
VERTEX
  5
10415
  8
05
 10
53.832638886984
 20
257.91802318095142
 30
0.0
  0
VERTEX
  5
10416
  8
05
 10
53.832638886984
 20
243.3180231809514
 30
0.0
  0
VERTEX
  5
10417
  8
05
 10
56.132638886983948
 20
243.31802318095151
 30
0.0
  0
SEQEND
  5
10418
  8
05
  0
POLYLINE
  5
1899
  8
05
 66
     1
 10
0.0
 20
0.0
 30
0.0
  0
VERTEX
  5
10419
  8
05
 10
37.619683456129451
 20
258.21802318095092
 30
0.0
 42
0.2160186508206791
  0
VERTEX
  5
1041A
  8
05
 10
37.619683456129451
 20
243.31802318095089
 30
0.0
 42
0.2160186508206876
  0
VERTEX
  5
1041B
  8
05
 10
37.61968345612911
 20
228.4180231809529
 30
0.0
 42
0.2160186508206876
  0
SEQEND
  5
1041C
  8
05
  0
POLYLINE
  5
189E
  8
05
 66
     1
 10
0.0
 20
0.0
 30
0.0
  0
VERTEX
  5
1041D
  8
05
 10
43.819683456129951
 20
228.41802318095131
 30
0.0
  0
VERTEX
  5
1041E
  8
05
 10
36.684924656779458
 20
228.41802318095131
 30
0.0
  0
VERTEX
  5
1041F
  8
05
 10
36.019683456129769
 20
229.0832643816008
 30
0.0
  0
VERTEX
  5
10420
  8
05
 10
36.019683456129769
 20
257.55278198030197
 30
0.0
  0
VERTEX
  5
10421
  8
05
 10
36.684924656779231
 20
258.21802318095138
 30
0.0
  0
VERTEX
  5
10422
  8
05
 10
43.819683456129717
 20
258.21802318095138
 30
0.0
  0
SEQEND
  5
10423
  8
05
  0
LINE
  5
18A6
  8
05
 10
45.419683456129739
 20
260.31802318095151
 30
0.0
 11
45.419683456129739
 21
226.3180231809514
 31
0.0
  0
LINE
  5
18A7
  8
05
 10
62.032638886983932
 20
227.3180231809514
 30
0.0
 11
62.032638886983932
 21
243.3180231809514
 31
0.0
  0
LINE
  5
18A8
  8
05
 10
56.132638886983948
 20
243.3180231809514
 30
0.0
 11
56.132638886983948
 21
227.3180231809514
 31
0.0
  0
POLYLINE
  5
18A9
  8
05
 66
     1
 10
0.0
 20
0.0
 30
0.0
 70
     1
  0
VERTEX
  5
10424
  8
05
 10
47.73263888698397
 20
258.1776548791284
 30
0.0
  0
VERTEX
  5
10425
  8
05
 10
47.73263888698397
 20
228.57765487912829
 30
0.0
  0
VERTEX
  5
10426
  8
05
 10
47.932638886983902
 20
228.37765487912839
 30
0.0
  0
VERTEX
  5
10427
  8
05
 10
49.132638886983948
 20
228.37765487912839
 30
0.0
  0
VERTEX
  5
10428
  8
05
 10
49.332638886984
 20
228.57765487912829
 30
0.0
  0
VERTEX
  5
10429
  8
05
 10
49.332638886983879
 20
258.1776548791284
 30
0.0
  0
VERTEX
  5
1042A
  8
05
 10
49.132638886983948
 20
258.37765487912839
 30
0.0
  0
VERTEX
  5
1042B
  8
05
 10
47.932638886984023
 20
258.37765487912839
 30
0.0
  0
SEQEND
  5
1042C
  8
05
  0
LINE
  5
18B3
  8
05
 10
34.33263888698395
 20
232.8180231809514
 30
0.0
 11
34.332638886983887
 21
253.81802318095129
 31
0.0
  0
POLYLINE
  5
18B4
  8
05
 66
     1
 10
0.0
 20
0.0
 30
0.0
  0
VERTEX
  5
1042D
  8
05
 10
36.019683456129769
 20
232.81802318095129
 30
0.0
  0
VERTEX
  5
1042E
  8
05
 10
34.33263888698395
 20
232.81802318095129
 30
0.0
  0
VERTEX
  5
1042F
  8
05
 10
32.332638886983943
 20
234.81802318095129
 30
0.0
  0
VERTEX
  5
10430
  8
05
 10
32.332638886983887
 20
251.81802318095129
 30
0.0
  0
VERTEX
  5
10431
  8
05
 10
34.332638886983887
 20
253.81802318095129
 30
0.0
  0
VERTEX
  5
10432
  8
05
 10
36.019683456129769
 20
253.81802318095129
 30
0.0
  0
SEQEND
  5
10433
  8
05
  0
LINE
  5
18BC
  8
05
 10
43.819683456129717
 20
226.71802318095141
 30
0.0
 11
43.819683456129717
 21
259.91802318095142
 31
0.0
  0
POLYLINE
  5
18BD
  8
05
 66
     1
 10
0.0
 20
0.0
 30
0.0
  0
VERTEX
  5
10434
  8
05
 10
94.232638886983977
 20
234.1180231809515
 30
0.0
  0
VERTEX
  5
10435
  8
05
 10
99.832638886984014
 20
234.1180231809515
 30
0.0
  0
VERTEX
  5
10436
  8
05
 10
99.832638886984014
 20
252.51802318095139
 30
0.0
  0
VERTEX
  5
10437
  8
05
 10
94.232638886983977
 20
252.51802318095139
 30
0.0
  0
SEQEND
  5
10438
  8
05
  0
LINE
  5
18C3
  8
05
 10
87.432638886984023
 20
227.3180231809514
 30
0.0
 11
87.432638886984023
 21
243.3180231809514
 31
0.0
  0
LINE
  5
18C4
  8
05
 10
81.532638886984046
 20
243.3180231809514
 30
0.0
 11
81.532638886984046
 21
227.3180231809514
 31
0.0
  0
LINE
  5
18C5
  8
05
 10
74.732638886983963
 20
243.3180231809514
 30
0.0
 11
74.732638886983963
 21
227.3180231809514
 31
0.0
  0
LINE
  5
18C6
  8
05
 10
68.832638886984
 20
243.3180231809514
 30
0.0
 11
68.832638886984
 21
227.3180231809514
 31
0.0
  0
LINE
  5
18D2
  8
05
 10
56.132638886983948
 20
196.98568162713431
 30
0.0
 11
62.032638886983932
 21
196.98568162713431
 31
0.0
  0
LINE
  5
18D3
  8
025
 10
61.195559651716508
 20
171.5549341416972
 30
0.0
 11
54.804671259459042
 21
171.5549341416972
 31
0.0
  0
POLYLINE
  5
18D4
  8
025
 66
     1
 10
0.0
 20
0.0
 30
0.0
  0
VERTEX
  5
10439
  8
025
 10
56.821499120894032
 20
172.7301337598083
 30
0.0
 42
0.1957062860191981
  0
VERTEX
  5
1043A
  8
025
 10
57.983270003147702
 20
175.0907237263971
 30
0.0
  0
VERTEX
  5
1043B
  8
025
 10
57.983270003147702
 20
184.35400210388471
 30
0.0
 42
0.1720024612105806
  0
VERTEX
  5
1043C
  8
025
 10
56.815302958977902
 20
187.55814223967579
 30
0.0
 42
0.1720024612105806
  0
SEQEND
  5
1043D
  8
025
  0
LINE
  5
18DA
  8
025
 10
63.328743093250857
 20
164.52978968067029
 30
0.0
 11
55.945238492084059
 21
164.52978968067029
 31
0.0
  0
ARC
  5
18DB
  8
035
 10
59.082638886984
 20
188.21556330827099
 30
0.0
 40
5.3549418604651189
 50
11.3617816359321
 51
168.6382183640678
  0
POLYLINE
  5
18DC
  8
05
 66
     1
 10
0.0
 20
0.0
 30
0.0
 70
     1
  0
VERTEX
  5
1043E
  8
05
 10
64.332638886984
 20
195.3856816271342
 30
0.0
  0
VERTEX
  5
1043F
  8
05
 10
64.332638886984
 20
161.38568162713409
 30
0.0
  0
VERTEX
  5
10440
  8
05
 10
53.832638886984
 20
161.38568162713409
 30
0.0
  0
VERTEX
  5
10441
  8
05
 10
53.832638886984
 20
195.38568162713429
 30
0.0
  0
SEQEND
  5
10442
  8
05
  0
LINE
  5
18E2
  8
MITTE
 10
104.60938656593009
 20
178.3856816271342
 30
0.0
 11
30.14450976828039
 21
178.3856816271342
 31
0.0
  0
LINE
  5
18E3
  8
05
 10
53.832638886984
 20
198.38568162713429
 30
0.0
 11
53.832638886984
 21
158.38568162713409
 31
0.0
  0
POLYLINE
  5
18E4
  8
05
 66
     1
 10
0.0
 20
0.0
 30
0.0
  0
VERTEX
  5
10443
  8
05
 10
43.819683456129717
 20
186.88568162713409
 30
0.0
  0
VERTEX
  5
10444
  8
05
 10
37.619683456129678
 20
186.8856816271342
 30
0.0
 42
-0.3946005785051942
  0
VERTEX
  5
10445
  8
05
 10
37.619683456128541
 20
194.9856816271338
 30
0.0
  0
SEQEND
  5
10446
  8
05
  0
LINE
  5
18E9
  8
05
 10
49.332638886984
 20
158.3856816271342
 30
0.0
 11
49.332638886984
 21
198.3856816271342
 31
0.0
  0
LINE
  5
18EA
  8
05
 10
43.819683456129717
 20
161.78568162713421
 30
0.0
 11
43.819683456129717
 21
194.9856816271342
 31
0.0
  0
POLYLINE
  5
18EB
  8
05
 66
     1
 10
0.0
 20
0.0
 30
0.0
 70
     1
  0
VERTEX
  5
10447
  8
05
 10
36.019683456129769
 20
163.38568162713409
 30
0.0
  0
VERTEX
  5
10448
  8
05
 10
36.019683456129769
 20
193.38568162713429
 30
0.0
  0
VERTEX
  5
10449
  8
05
 10
37.619683456129678
 20
194.9856816271342
 30
0.0
  0
VERTEX
  5
1044A
  8
05
 10
43.819683456129717
 20
194.9856816271342
 30
0.0
 42
-0.1122733198412798
  0
VERTEX
  5
1044B
  8
05
 10
45.419683456129739
 20
195.38568162713429
 30
0.0
  0
VERTEX
  5
1044C
  8
05
 10
45.419683456129739
 20
161.3856816271342
 30
0.0
 42
-0.1122733198412799
  0
VERTEX
  5
1044D
  8
05
 10
43.819683456129717
 20
161.78568162713421
 30
0.0
  0
VERTEX
  5
1044E
  8
05
 10
37.619683456129792
 20
161.78568162713421
 30
0.0
  0
SEQEND
  5
1044F
  8
05
  0
POLYLINE
  5
18F5
  8
05
 66
     1
 10
0.0
 20
0.0
 30
0.0
 70
     1
  0
VERTEX
  5
10450
  8
05
 10
47.73263888698397
 20
193.24531332531129
 30
0.0
  0
VERTEX
  5
10451
  8
05
 10
47.73263888698397
 20
163.64531332531109
 30
0.0
  0
VERTEX
  5
10452
  8
05
 10
47.932638886983902
 20
163.44531332531119
 30
0.0
  0
VERTEX
  5
10453
  8
05
 10
49.132638886983948
 20
163.44531332531119
 30
0.0
  0
VERTEX
  5
10454
  8
05
 10
49.332638886984
 20
163.64531332531109
 30
0.0
  0
VERTEX
  5
10455
  8
05
 10
49.332638886983879
 20
193.2453133253112
 30
0.0
  0
VERTEX
  5
10456
  8
05
 10
49.132638886983948
 20
193.44531332531119
 30
0.0
  0
VERTEX
  5
10457
  8
05
 10
47.932638886984023
 20
193.44531332531119
 30
0.0
  0
SEQEND
  5
10458
  8
05
  0
LINE
  5
18FF
  8
05
 10
34.332638886984
 20
167.8856816271342
 30
0.0
 11
34.332638886983887
 21
188.88568162713409
 31
0.0
  0
POLYLINE
  5
1900
  8
05
 66
     1
 10
0.0
 20
0.0
 30
0.0
  0
VERTEX
  5
10459
  8
05
 10
36.019683456129769
 20
167.88568162713409
 30
0.0
  0
VERTEX
  5
1045A
  8
05
 10
34.332638886984
 20
167.88568162713409
 30
0.0
  0
VERTEX
  5
1045B
  8
05
 10
32.332638886984
 20
169.88568162713409
 30
0.0
  0
VERTEX
  5
1045C
  8
05
 10
32.332638886983887
 20
186.88568162713409
 30
0.0
  0
VERTEX
  5
1045D
  8
05
 10
34.332638886983887
 20
188.88568162713409
 30
0.0
  0
VERTEX
  5
1045E
  8
05
 10
36.019683456129769
 20
188.88568162713409
 30
0.0
  0
SEQEND
  5
1045F
  8
05
  0
POLYLINE
  5
1908
  8
05
 66
     1
 10
0.0
 20
0.0
 30
0.0
  0
VERTEX
  5
10460
  8
05
 10
43.819683456129717
 20
169.8856816271342
 30
0.0
  0
VERTEX
  5
10461
  8
05
 10
37.619683456129678
 20
169.8856816271342
 30
0.0
 42
0.3946005785051945
  0
VERTEX
  5
10462
  8
05
 10
37.619683456129678
 20
161.78568162713421
 30
0.0
  0
SEQEND
  5
10463
  8
05
  0
LINE
  5
190D
  8
05
 10
56.132638886983948
 20
158.38568162713409
 30
0.0
 11
49.332638886984
 21
158.38568162713409
 31
0.0
  0
LINE
  5
190E
  8
05
 10
56.132638886983948
 20
161.38568162713409
 30
0.0
 11
56.132638886983948
 21
158.38568162713409
 31
0.0
  0
POLYLINE
  5
190F
  8
035
 66
     1
 10
0.0
 20
0.0
 30
0.0
  0
VERTEX
  5
10464
  8
035
 10
53.832638886984
 20
161.38568162713409
 30
0.0
  0
VERTEX
  5
10465
  8
035
 10
53.832638886984
 20
160.00770392105349
 30
0.0
  0
VERTEX
  5
10466
  8
035
 10
54.632638886983962
 20
160.00770392105349
 30
0.0
  0
VERTEX
  5
10467
  8
035
 10
54.632638886983962
 20
161.38568162713409
 30
0.0
  0
SEQEND
  5
10468
  8
035
  0
LINE
  5
1915
  8
025
 10
55.45748292876533
 20
164.52978968067029
 30
0.0
 11
54.585331075412462
 21
164.52978968067029
 31
0.0
  0
ARC
  5
1916
  8
05
 10
59.397808456129717
 20
178.3856816271342
 30
0.0
 40
23.37812500000004
 50
158.67930341092949
 51
201.32069658907051
  0
LINE
  5
1917
  8
025
 10
32.332638886984
 20
169.88568162713409
 30
0.0
 11
36.019683456129769
 21
169.88568162713409
 31
0.0
  0
LINE
  5
1918
  8
025
 10
32.332638886983887
 20
186.88568162713409
 30
0.0
 11
36.019683456129769
 21
186.88568162713409
 31
0.0
  0
LINE
  5
1919
  8
05
 10
47.73263888698397
 20
167.88568162713429
 30
0.0
 11
45.419683456129739
 21
167.88568162713409
 31
0.0
  0
LINE
  5
191A
  8
025
 10
45.419683456129739
 20
169.88568162713409
 30
0.0
 11
47.73263888698397
 21
169.88568162713409
 31
0.0
  0
LINE
  5
191B
  8
025
 10
45.419683456129739
 20
186.88568162713409
 30
0.0
 11
47.73263888698397
 21
186.8856816271342
 31
0.0
  0
LINE
  5
191C
  8
05
 10
56.132638886983948
 20
198.38568162713429
 30
0.0
 11
49.332638886984
 21
198.38568162713429
 31
0.0
  0
LINE
  5
191D
  8
05
 10
47.73263888698397
 20
188.8856816271342
 30
0.0
 11
45.419683456129739
 21
188.88568162713409
 31
0.0
  0
LINE
  5
191E
  8
05
 10
56.132638886983948
 20
196.98568162713431
 30
0.0
 11
56.132638886983948
 21
198.38568162713429
 31
0.0
  0
LINE
  5
191F
  8
025
 10
32.332638886983943
 20
234.81802318095129
 30
0.0
 11
36.019683456129769
 21
234.81802318095129
 31
0.0
  0
POLYLINE
  5
1920
  8
05
 66
     1
 10
0.0
 20
0.0
 30
0.0
  0
VERTEX
  5
10469
  8
05
 10
56.132638886983948
 20
227.31802318095129
 30
0.0
  0
VERTEX
  5
1046A
  8
05
 10
51.932638886983909
 20
227.3180231809514
 30
0.0
  0
VERTEX
  5
1046B
  8
05
 10
51.932638886983909
 20
230.3180231809514
 30
0.0
  0
VERTEX
  5
1046C
  8
05
 10
49.332638886984
 20
230.3180231809514
 30
0.0
  0
SEQEND
  5
1046D
  8
05
  0
ARC
  5
1926
  8
05
 10
45.499139682281793
 20
230.03584808555991
 30
0.0
 40
3.7186738648611208
 50
243.1518347046258
 51
268.77567835952249
  0
LINE
  5
1927
  8
05
 10
47.73263888698397
 20
232.81802318095151
 30
0.0
 11
45.419683456129739
 21
232.81802318095129
 31
0.0
  0
ARC
  5
1928
  8
035
 10
71.782638886983932
 20
188.21556330827099
 30
0.0
 40
5.3549418604651189
 50
11.3617816359321
 51
168.6382183640678
  0
POLYLINE
  5
1929
  8
05
 66
     1
 10
0.0
 20
0.0
 30
0.0
 70
     1
  0
VERTEX
  5
1046E
  8
05
 10
77.032638886983932
 20
195.3856816271342
 30
0.0
  0
VERTEX
  5
1046F
  8
05
 10
77.032638886983932
 20
161.38568162713409
 30
0.0
  0
VERTEX
  5
10470
  8
05
 10
66.532638886983932
 20
161.38568162713409
 30
0.0
  0
VERTEX
  5
10471
  8
05
 10
66.532638886983932
 20
195.38568162713429
 30
0.0
  0
SEQEND
  5
10472
  8
05
  0
LINE
  5
192F
  8
05
 10
64.332638886984
 20
198.3856816271342
 30
0.0
 11
64.332638886984
 21
158.38568162713401
 31
0.0
  0
LINE
  5
1930
  8
05
 10
66.532638886983932
 20
198.38568162713429
 30
0.0
 11
66.532638886983932
 21
158.38568162713409
 31
0.0
  0
ARC
  5
1931
  8
035
 10
84.482638886983963
 20
188.21556330827099
 30
0.0
 40
5.3549418604651189
 50
11.3617816359321
 51
168.6382183640678
  0
LINE
  5
1932
  8
05
 10
94.232638886983977
 20
158.3856816271342
 30
0.0
 11
94.232638886983977
 21
198.3856816271342
 31
0.0
  0
LINE
  5
1933
  8
05
 10
77.032638886983932
 20
198.3856816271342
 30
0.0
 11
77.032638886983932
 21
158.38568162713401
 31
0.0
  0
LINE
  5
1934
  8
05
 10
79.232638886983963
 20
198.38568162713429
 30
0.0
 11
79.232638886983963
 21
158.38568162713409
 31
0.0
  0
LINE
  5
1935
  8
05
 10
89.732638886983963
 20
198.3856816271342
 30
0.0
 11
89.732638886983963
 21
158.38568162713401
 31
0.0
  0
POLYLINE
  5
1936
  8
05
 66
     1
 10
0.0
 20
0.0
 30
0.0
 70
     1
  0
VERTEX
  5
10473
  8
05
 10
89.732638886983963
 20
195.3856816271342
 30
0.0
  0
VERTEX
  5
10474
  8
05
 10
89.732638886983963
 20
161.38568162713409
 30
0.0
  0
VERTEX
  5
10475
  8
05
 10
79.232638886983963
 20
161.38568162713409
 30
0.0
  0
VERTEX
  5
10476
  8
05
 10
79.232638886983963
 20
195.38568162713429
 30
0.0
  0
SEQEND
  5
10477
  8
05
  0
LINE
  5
193C
  8
05
 10
94.232638886983977
 20
158.38568162713409
 30
0.0
 11
87.432638886984023
 21
158.38568162713409
 31
0.0
  0
LINE
  5
193D
  8
025
 10
75.648586903426235
 20
164.52978968067029
 30
0.0
 11
68.835367355586641
 21
164.52978968067029
 31
0.0
  0
LINE
  5
193E
  8
05
 10
68.832638886984
 20
158.38568162713409
 30
0.0
 11
62.032638886983932
 21
158.38568162713409
 31
0.0
  0
LINE
  5
193F
  8
05
 10
62.032638886983932
 20
161.38568162713409
 30
0.0
 11
62.032638886983932
 21
158.38568162713409
 31
0.0
  0
POLYLINE
  5
1940
  8
035
 66
     1
 10
0.0
 20
0.0
 30
0.0
  0
VERTEX
  5
10478
  8
035
 10
63.532638886983932
 20
161.38568162713409
 30
0.0
  0
VERTEX
  5
10479
  8
035
 10
63.532638886983932
 20
160.00770392105349
 30
0.0
  0
VERTEX
  5
1047A
  8
035
 10
64.332638886984
 20
160.00770392105349
 30
0.0
  0
VERTEX
  5
1047B
  8
035
 10
64.332638886984
 20
161.38568162713409
 30
0.0
  0
SEQEND
  5
1047C
  8
035
  0
LINE
  5
1946
  8
05
 10
68.832638886984
 20
161.38568162713409
 30
0.0
 11
68.832638886984
 21
158.38568162713409
 31
0.0
  0
LINE
  5
1947
  8
025
 10
68.157482928765376
 20
164.52978968067029
 30
0.0
 11
67.118003936050741
 21
164.52978968067029
 31
0.0
  0
POLYLINE
  5
1948
  8
035
 66
     1
 10
0.0
 20
0.0
 30
0.0
  0
VERTEX
  5
1047D
  8
035
 10
66.532638886983932
 20
161.38568162713409
 30
0.0
  0
VERTEX
  5
1047E
  8
035
 10
66.532638886983932
 20
160.00770392105349
 30
0.0
  0
VERTEX
  5
1047F
  8
035
 10
67.332638886984
 20
160.00770392105349
 30
0.0
  0
VERTEX
  5
10480
  8
035
 10
67.332638886984
 20
161.38568162713409
 30
0.0
  0
SEQEND
  5
10481
  8
035
  0
LINE
  5
194E
  8
05
 10
74.732638886983963
 20
161.38568162713409
 30
0.0
 11
74.732638886983963
 21
158.38568162713409
 31
0.0
  0
LINE
  5
194F
  8
05
 10
81.532638886984046
 20
161.38568162713409
 30
0.0
 11
81.532638886984046
 21
158.38568162713409
 31
0.0
  0
LINE
  5
1950
  8
05
 10
81.532638886984046
 20
158.38568162713409
 30
0.0
 11
74.732638886983963
 21
158.38568162713409
 31
0.0
  0
POLYLINE
  5
1951
  8
035
 66
     1
 10
0.0
 20
0.0
 30
0.0
  0
VERTEX
  5
10482
  8
035
 10
76.232638886983977
 20
161.38568162713409
 30
0.0
  0
VERTEX
  5
10483
  8
035
 10
76.232638886983977
 20
160.00770392105349
 30
0.0
  0
VERTEX
  5
10484
  8
035
 10
77.032638886983932
 20
160.00770392105349
 30
0.0
  0
VERTEX
  5
10485
  8
035
 10
77.032638886983932
 20
161.38568162713409
 30
0.0
  0
SEQEND
  5
10486
  8
035
  0
POLYLINE
  5
1957
  8
035
 66
     1
 10
0.0
 20
0.0
 30
0.0
  0
VERTEX
  5
10487
  8
035
 10
79.232638886983963
 20
161.38568162713409
 30
0.0
  0
VERTEX
  5
10488
  8
035
 10
79.232638886983963
 20
160.00770392105349
 30
0.0
  0
VERTEX
  5
10489
  8
035
 10
80.032638886984046
 20
160.00770392105349
 30
0.0
  0
VERTEX
  5
1048A
  8
035
 10
80.032638886984046
 20
161.38568162713409
 30
0.0
  0
SEQEND
  5
1048B
  8
035
  0
LINE
  5
195D
  8
025
 10
80.857482928765435
 20
164.52978968067029
 30
0.0
 11
79.818003936050673
 21
164.52978968067029
 31
0.0
  0
LINE
  5
195E
  8
05
 10
87.432638886984023
 20
161.38568162713409
 30
0.0
 11
87.432638886984023
 21
158.38568162713409
 31
0.0
  0
LINE
  5
195F
  8
025
 10
88.71418676455437
 20
164.52978968067029
 30
0.0
 11
82.032569027919195
 21
164.52978968067029
 31
0.0
  0
POLYLINE
  5
1960
  8
035
 66
     1
 10
0.0
 20
0.0
 30
0.0
  0
VERTEX
  5
1048C
  8
035
 10
88.932638886984023
 20
161.38568162713409
 30
0.0
  0
VERTEX
  5
1048D
  8
035
 10
88.932638886984023
 20
160.00770392105349
 30
0.0
  0
VERTEX
  5
1048E
  8
035
 10
89.732638886983963
 20
160.00770392105349
 30
0.0
  0
VERTEX
  5
1048F
  8
035
 10
89.732638886983963
 20
161.38568162713409
 30
0.0
  0
SEQEND
  5
10490
  8
035
  0
POLYLINE
  5
1966
  8
025
 66
     1
 10
0.0
 20
0.0
 30
0.0
  0
VERTEX
  5
10491
  8
025
 10
74.057683249695515
 20
187.35788248457411
 30
0.0
 42
0.184217657103692
  0
VERTEX
  5
10492
  8
025
 10
72.882007770820223
 20
184.88802612425971
 30
0.0
  0
VERTEX
  5
10493
  8
025
 10
72.882007770820223
 20
175.0907237263971
 30
0.0
 42
0.1918553960062915
  0
VERTEX
  5
10494
  8
025
 10
74.005324123296873
 20
172.7648492604242
 30
0.0
  0
SEQEND
  5
10495
  8
025
  0
POLYLINE
  5
196C
  8
025
 66
     1
 10
0.0
 20
0.0
 30
0.0
  0
VERTEX
  5
10496
  8
025
 10
69.521499120894063
 20
172.7301337598083
 30
0.0
 42
0.1957062860191981
  0
VERTEX
  5
10497
  8
025
 10
70.683270003147641
 20
175.0907237263971
 30
0.0
  0
VERTEX
  5
10498
  8
025
 10
70.683270003147641
 20
184.35400210388471
 30
0.0
 42
0.1720024612105806
  0
VERTEX
  5
10499
  8
025
 10
69.515302958977941
 20
187.55814223967579
 30
0.0
 42
0.1720024612105806
  0
SEQEND
  5
1049A
  8
025
  0
POLYLINE
  5
1972
  8
025
 66
     1
 10
0.0
 20
0.0
 30
0.0
  0
VERTEX
  5
1049B
  8
025
 10
61.357683249695462
 20
187.35788248457411
 30
0.0
 42
0.184217657103692
  0
VERTEX
  5
1049C
  8
025
 10
60.182007770820292
 20
184.88802612425971
 30
0.0
  0
VERTEX
  5
1049D
  8
025
 10
60.182007770820292
 20
175.0907237263971
 30
0.0
 42
0.1918553960062915
  0
VERTEX
  5
1049E
  8
025
 10
61.30532412329682
 20
172.7648492604242
 30
0.0
  0
SEQEND
  5
1049F
  8
025
  0
LINE
  5
1978
  8
025
 10
63.649417542381677
 20
171.5549341416972
 30
0.0
 11
61.933858737458081
 21
171.5549341416972
 31
0.0
  0
LINE
  5
1979
  8
025
 10
73.895559651716553
 20
171.5549341416972
 30
0.0
 11
67.203348242312245
 21
171.5549341416972
 31
0.0
  0
POLYLINE
  5
197A
  8
025
 66
     1
 10
0.0
 20
0.0
 30
0.0
  0
VERTEX
  5
104A0
  8
025
 10
82.221499120894109
 20
172.7301337598083
 30
0.0
 42
0.1957062860191981
  0
VERTEX
  5
104A1
  8
025
 10
83.383270003147686
 20
175.0907237263971
 30
0.0
  0
VERTEX
  5
104A2
  8
025
 10
83.383270003147686
 20
184.35400210388471
 30
0.0
 42
0.1720024612105806
  0
VERTEX
  5
104A3
  8
025
 10
82.215302958977873
 20
187.55814223967579
 30
0.0
 42
0.1720024612105806
  0
SEQEND
  5
104A4
  8
025
  0
POLYLINE
  5
1980
  8
025
 66
     1
 10
0.0
 20
0.0
 30
0.0
  0
VERTEX
  5
104A5
  8
025
 10
86.75768324969556
 20
187.35788248457411
 30
0.0
 42
0.184217657103692
  0
VERTEX
  5
104A6
  8
025
 10
85.582007770820255
 20
184.88802612425971
 30
0.0
  0
VERTEX
  5
104A7
  8
025
 10
85.582007770820255
 20
175.0907237263971
 30
0.0
 42
0.1918553960062915
  0
VERTEX
  5
104A8
  8
025
 10
86.705324123296904
 20
172.7648492604242
 30
0.0
  0
SEQEND
  5
104A9
  8
025
  0
LINE
  5
1986
  8
025
 10
86.125355826071086
 20
171.5549341416972
 30
0.0
 11
80.409452240779714
 21
171.5549341416972
 31
0.0
  0
LINE
  5
1987
  8
025
 10
76.34941754238173
 20
171.5549341416972
 30
0.0
 11
74.375318523578017
 21
171.5549341416972
 31
0.0
  0
LINE
  5
1988
  8
025
 10
89.049417542381661
 20
171.5549341416972
 30
0.0
 11
87.075318523578062
 21
171.5549341416972
 31
0.0
  0
POLYLINE
  5
1989
  8
05
 66
     1
 10
0.0
 20
0.0
 30
0.0
  0
VERTEX
  5
104AA
  8
05
 10
94.232638886983977
 20
169.1856816271343
 30
0.0
  0
VERTEX
  5
104AB
  8
05
 10
99.832638886984014
 20
169.1856816271343
 30
0.0
  0
VERTEX
  5
104AC
  8
05
 10
99.832638886984014
 20
187.58568162713411
 30
0.0
  0
VERTEX
  5
104AD
  8
05
 10
94.232638886983977
 20
187.58568162713411
 30
0.0
  0
SEQEND
  5
104AE
  8
05
  0
LINE
  5
199A
  8
05
 10
94.232638886983977
 20
198.38568162713429
 30
0.0
 11
87.432638886984023
 21
198.38568162713429
 31
0.0
  0
LINE
  5
19A6
  8
05
 10
68.832638886984
 20
196.98568162713431
 30
0.0
 11
74.732638886983963
 21
196.98568162713431
 31
0.0
  0
LINE
  5
19A7
  8
05
 10
68.832638886984
 20
198.38568162713429
 30
0.0
 11
62.032638886983932
 21
198.38568162713429
 31
0.0
  0
LINE
  5
19A8
  8
05
 10
62.032638886983932
 20
196.98568162713431
 30
0.0
 11
62.032638886983932
 21
198.38568162713429
 31
0.0
  0
LINE
  5
19A9
  8
05
 10
68.832638886984
 20
196.98568162713431
 30
0.0
 11
68.832638886984
 21
198.38568162713429
 31
0.0
  0
LINE
  5
19AA
  8
05
 10
81.532638886984046
 20
196.98568162713431
 30
0.0
 11
87.432638886984023
 21
196.98568162713431
 31
0.0
  0
LINE
  5
19AB
  8
05
 10
81.532638886984046
 20
198.38568162713429
 30
0.0
 11
74.732638886983963
 21
198.38568162713429
 31
0.0
  0
LINE
  5
19AC
  8
05
 10
74.732638886983963
 20
196.98568162713431
 30
0.0
 11
74.732638886983963
 21
198.38568162713429
 31
0.0
  0
LINE
  5
19AD
  8
05
 10
81.532638886984046
 20
196.98568162713431
 30
0.0
 11
81.532638886984046
 21
198.38568162713429
 31
0.0
  0
LINE
  5
19AE
  8
05
 10
87.432638886984023
 20
196.98568162713431
 30
0.0
 11
87.432638886984023
 21
198.38568162713429
 31
0.0
  0
POLYLINE
  5
19AF
  8
05
 66
     1
 10
0.0
 20
0.0
 30
0.0
  0
VERTEX
  5
104AF
  8
05
 10
68.832638886984
 20
227.31802318095129
 30
0.0
  0
VERTEX
  5
104B0
  8
05
 10
62.032638886983932
 20
227.31802318095129
 30
0.0
  0
SEQEND
  5
104B1
  8
05
  0
CIRCLE
  5
19B3
  8
035
 10
59.082638886984
 20
237.31802318095129
 30
0.0
 40
1.0
  0
CIRCLE
  5
19B4
  8
035
 10
71.782638886984046
 20
237.31802318095129
 30
0.0
 40
1.0
  0
POLYLINE
  5
19B5
  8
05
 66
     1
 10
0.0
 20
0.0
 30
0.0
  0
VERTEX
  5
104B2
  8
05
 10
81.532638886984046
 20
227.3180231809514
 30
0.0
  0
VERTEX
  5
104B3
  8
05
 10
74.732638886983963
 20
227.31802318095129
 30
0.0
  0
SEQEND
  5
104B4
  8
05
  0
CIRCLE
  5
19B9
  8
035
 10
84.482638886983963
 20
237.31802318095129
 30
0.0
 40
1.0
  0
SOLID
  5
19BA
  8
BEM1
 10
128.64530553533879
 20
216.65190864621789
 30
0.0
 11
129.81197220200551
 21
216.65190864621789
 31
0.0
 12
129.22863886867211
 22
213.15190864621789
 32
0.0
 13
129.22863886867211
 23
213.15190864621789
 33
0.0
  0
TEXT
  5
19BB
  8
BEM1
 62
     3
 10
127.47863886867211
 20
223.94557638484031
 30
0.0
 40
3.5
  1
15.00
 50
90.0
 41
0.7
 51
15.0
 72
     1
 11
125.72863886867199
 21
228.02890971817359
 31
0.0
 73
     2
  0
LINE
  5
19BD
  8
BEM1
 10
32.332638886983887
 20
278.53588760111728
 30
0.0
 11
96.332638886984014
 21
278.53588760111728
 31
0.0
  0
LINE
  5
19BE
  8
MITTE
 10
103.2239764774842
 20
243.3180231809514
 30
0.0
 11
30.144509768280329
 21
243.3180231809514
 31
0.0
  0
LINE
  5
19BF
  8
BEM1
 10
32.332638886983887
 20
252.81802318095129
 30
0.0
 11
32.332638886983887
 21
279.9857108613482
 31
0.0
  0
LINE
  5
19C0
  8
BEM1
 10
49.332638886983879
 20
258.91802318095142
 30
0.0
 11
49.332638886983879
 21
270.55722364154042
 31
0.0
  0
LINE
  5
19C1
  8
05
 10
43.819683456129717
 20
243.3180231809514
 30
0.0
 11
37.619683456129678
 21
243.3180231809514
 31
0.0
  0
LINE
  5
19C2
  8
025
 10
32.332638886983887
 20
251.81802318095129
 30
0.0
 11
36.019683456129769
 21
251.81802318095129
 31
0.0
  0
LINE
  5
19C3
  8
05
 10
53.832638886984
 20
243.3180231809514
 30
0.0
 11
49.332638886983879
 21
243.3180231809514
 31
0.0
  0
LINE
  5
19C4
  8
035
 10
54.632638886983962
 20
243.31802318095151
 30
0.0
 11
54.632638886983962
 21
248.0194363558125
 31
0.0
  0
LINE
  5
19C5
  8
035
 10
53.832638886984
 20
248.0194363558125
 30
0.0
 11
54.632638886983962
 21
248.0194363558125
 31
0.0
  0
LINE
  5
19C6
  8
05
 10
47.73263888698397
 20
253.8180231809514
 30
0.0
 11
45.419683456129739
 21
253.81802318095129
 31
0.0
  0
LINE
  5
19C7
  8
025
 10
45.419683456129739
 20
251.81802318095129
 30
0.0
 11
47.73263888698397
 21
251.8180231809514
 31
0.0
  0
ARC
  5
19C8
  8
05
 10
45.499139682282021
 20
256.60019827634301
 30
0.0
 40
3.7186738648611879
 50
91.224321640481406
 51
116.8481652953781
  0
LINE
  5
19C9
  8
BEM1
 10
45.832638886983887
 20
269.53588760111728
 30
0.0
 11
35.832638886983887
 21
269.53588760111728
 31
0.0
  0
SOLID
  5
19CB
  8
BEM1
 10
35.832638886983887
 20
270.1192209344506
 30
0.0
 11
35.832638886983887
 21
268.95255426778402
 31
0.0
 12
32.332638886983887
 22
269.53588760111728
 32
0.0
 13
32.332638886983887
 23
269.53588760111728
 33
0.0
  0
SOLID
  5
19CC
  8
BEM1
 10
35.832638886983887
 20
279.11922093445071
 30
0.0
 11
35.832638886983887
 21
277.95255426778402
 31
0.0
 12
32.332638886983887
 22
278.53588760111728
 32
0.0
 13
32.332638886983887
 23
278.53588760111728
 33
0.0
  0
SOLID
  5
19CD
  8
BEM1
 10
45.832638886983887
 20
270.1192209344506
 30
0.0
 11
45.832638886983887
 21
268.95255426778402
 31
0.0
 12
49.332638886983879
 22
269.53588760111728
 32
0.0
 13
49.332638886983879
 23
269.53588760111728
 33
0.0
  0
LINE
  5
19CE
  8
05
 10
89.732638886983963
 20
243.3180231809514
 30
0.0
 11
94.232638886983977
 21
243.3180231809514
 31
0.0
  0
POLYLINE
  5
19D0
  8
05
 66
     1
 10
0.0
 20
0.0
 30
0.0
  0
VERTEX
  5
104B5
  8
05
 10
62.032638886983932
 20
243.3180231809514
 30
0.0
  0
VERTEX
  5
104B6
  8
05
 10
64.332638886984
 20
243.3180231809514
 30
0.0
  0
VERTEX
  5
104B7
  8
05
 10
64.332638886984
 20
257.91802318095142
 30
0.0
  0
VERTEX
  5
104B8
  8
05
 10
66.532638886983932
 20
257.91802318095142
 30
0.0
  0
VERTEX
  5
104B9
  8
05
 10
66.532638886983932
 20
243.3180231809514
 30
0.0
  0
VERTEX
  5
104BA
  8
05
 10
68.832638886984
 20
243.3180231809514
 30
0.0
  0
SEQEND
  5
104BB
  8
05
  0
LINE
  5
19D8
  8
05
 10
64.332638886984
 20
243.3180231809514
 30
0.0
 11
66.532638886983932
 21
243.3180231809514
 31
0.0
  0
LINE
  5
19D9
  8
035
 10
63.532638886983932
 20
243.31802318095151
 30
0.0
 11
63.532638886983932
 21
248.0194363558125
 31
0.0
  0
LINE
  5
19DA
  8
035
 10
63.532638886983932
 20
248.0194363558125
 30
0.0
 11
64.332638886984
 21
248.0194363558125
 31
0.0
  0
LINE
  5
19DB
  8
035
 10
67.332638886984
 20
243.31802318095151
 30
0.0
 11
67.332638886984
 21
248.0194363558125
 31
0.0
  0
LINE
  5
19DC
  8
035
 10
66.532638886983932
 20
248.0194363558125
 30
0.0
 11
67.332638886984
 21
248.0194363558125
 31
0.0
  0
POLYLINE
  5
19DD
  8
05
 66
     1
 10
0.0
 20
0.0
 30
0.0
  0
VERTEX
  5
104BC
  8
05
 10
74.732638886983963
 20
243.3180231809514
 30
0.0
  0
VERTEX
  5
104BD
  8
05
 10
77.032638886983932
 20
243.3180231809514
 30
0.0
  0
VERTEX
  5
104BE
  8
05
 10
77.032638886983932
 20
257.91802318095142
 30
0.0
  0
VERTEX
  5
104BF
  8
05
 10
79.232638886983963
 20
257.91802318095142
 30
0.0
  0
VERTEX
  5
104C0
  8
05
 10
79.232638886983963
 20
243.3180231809514
 30
0.0
  0
VERTEX
  5
104C1
  8
05
 10
81.532638886984046
 20
243.31802318095129
 30
0.0
  0
SEQEND
  5
104C2
  8
05
  0
LINE
  5
19E6
  8
035
 10
76.232638886983977
 20
243.31802318095151
 30
0.0
 11
76.232638886983977
 21
248.0194363558125
 31
0.0
  0
LINE
  5
19E7
  8
035
 10
80.032638886984046
 20
243.31802318095151
 30
0.0
 11
80.032638886984046
 21
248.0194363558125
 31
0.0
  0
LINE
  5
19E8
  8
05
 10
77.032638886983932
 20
243.3180231809514
 30
0.0
 11
79.232638886983963
 21
243.3180231809514
 31
0.0
  0
LINE
  5
19E9
  8
035
 10
76.232638886983977
 20
248.0194363558125
 30
0.0
 11
77.032638886983932
 21
248.0194363558125
 31
0.0
  0
LINE
  5
19EA
  8
035
 10
79.232638886983963
 20
248.0194363558125
 30
0.0
 11
80.032638886984046
 21
248.0194363558125
 31
0.0
  0
LINE
  5
19EB
  8
035
 10
88.932638886984023
 20
243.31802318095151
 30
0.0
 11
88.932638886983895
 21
248.0194363558125
 31
0.0
  0
LINE
  5
19EC
  8
035
 10
88.932638886984023
 20
248.0194363558125
 30
0.0
 11
89.732638886983963
 21
248.0194363558125
 31
0.0
  0
LINE
  5
19EE
  8
BEM1
 10
99.832638886984014
 20
253.5180231809513
 30
0.0
 11
99.832638886984014
 21
279.55722364154042
 31
0.0
  0
SOLID
  5
19EF
  8
BEM1
 10
128.64530553533879
 20
239.8180231809514
 30
0.0
 11
129.81197220200551
 21
239.8180231809514
 31
0.0
 12
129.22863886867211
 22
243.3180231809514
 32
0.0
 13
129.22863886867211
 23
243.3180231809514
 33
0.0
  0
SOLID
  5
19F0
  8
BEM1
 10
96.332638886984014
 20
279.11922093445071
 30
0.0
 11
96.332638886984014
 21
277.95255426778402
 31
0.0
 12
99.832638886984014
 22
278.53588760111728
 32
0.0
 13
99.832638886984014
 23
278.53588760111728
 33
0.0
  0
CIRCLE
  5
19F1
  8
05
 10
158.79516869789171
 20
243.3180231809514
 30
0.0
 40
6.4000000000000004
  0
CIRCLE
  5
19F2
  8
05
 10
158.79516869789171
 20
243.3180231809514
 30
0.0
 40
10.499999999999879
  0
CIRCLE
  5
19F3
  8
035
 10
158.79516869789171
 20
243.3180231809514
 30
0.0
 40
14.376021702821721
  0
POLYLINE
  5
19F4
  8
05
 66
     1
 10
0.0
 20
0.0
 30
0.0
 70
     1
  0
VERTEX
  5
104C3
  8
05
 10
158.79516869789171
 20
259.91802318095142
 30
0.0
  0
VERTEX
  5
104C4
  8
05
 10
144.41914699507009
 20
251.61802318095141
 30
0.0
  0
VERTEX
  5
104C5
  8
05
 10
144.41914699507009
 20
235.01802318095139
 30
0.0
  0
VERTEX
  5
104C6
  8
05
 10
158.79516869789171
 20
226.71802318095141
 30
0.0
  0
VERTEX
  5
104C7
  8
05
 10
173.17119040071361
 20
235.01802318095139
 30
0.0
  0
VERTEX
  5
104C8
  8
05
 10
173.17119040071361
 20
251.61802318095141
 30
0.0
  0
SEQEND
  5
104C9
  8
05
  0
CIRCLE
  5
19FC
  8
05
 10
158.79516869789171
 20
243.3180231809514
 30
0.0
 40
17.00000000000011
  0
LINE
  5
19FD
  8
MITTE
 10
158.79516869789171
 20
261.5780231809515
 30
0.0
 11
158.79516869789171
 21
225.05802318095141
 31
0.0
  0
POLYLINE
  5
19FE
  8
05
 66
     1
 10
0.0
 20
0.0
 30
0.0
  0
VERTEX
  5
104CA
  8
05
 10
164.53973134443021
 20
227.3180231809514
 30
0.0
  0
VERTEX
  5
104CB
  8
05
 10
178.795168697892
 20
227.3180231809514
 30
0.0
  0
VERTEX
  5
104CC
  8
05
 10
178.795168697892
 20
243.3180231809514
 30
0.0
  0
VERTEX
  5
104CD
  8
05
 10
175.4367704131468
 20
246.79035558883371
 30
0.0
  0
SEQEND
  5
104CE
  8
05
  0
POLYLINE
  5
1A04
  8
05
 66
     1
 10
0.0
 20
0.0
 30
0.0
  0
VERTEX
  5
104CF
  8
05
 10
142.1535669826369
 20
246.79035558883371
 30
0.0
  0
VERTEX
  5
104D0
  8
05
 10
138.79516869789171
 20
243.3180231809514
 30
0.0
  0
VERTEX
  5
104D1
  8
05
 10
138.79516869789171
 20
227.3180231809514
 30
0.0
  0
VERTEX
  5
104D2
  8
05
 10
153.0506060513535
 20
227.3180231809514
 30
0.0
  0
SEQEND
  5
104D3
  8
05
  0
ARC
  5
1A0A
  8
025
 10
158.79516869789171
 20
243.3180231809514
 30
0.0
 40
8.4999999999998863
 50
172.84109159010171
 51
74.774210087216858
  0
LINE
  5
1A17
  8
035
 10
141.99516869789181
 20
213.15190864621789
 30
0.0
 11
142.79516869789171
 21
213.15190864621789
 31
0.0
  0
LINE
  5
1A18
  8
05
 10
138.79516869789171
 20
230.3180231809514
 30
0.0
 11
147.84071754778839
 21
230.3180231809514
 31
0.0
  0
LINE
  5
1A24
  8
035
 10
173.99516869789181
 20
213.15190864621781
 30
0.0
 11
174.79516869789171
 21
213.15190864621781
 31
0.0
  0
LINE
  5
1A25
  8
05
 10
169.74961984799529
 20
230.3180231809514
 30
0.0
 11
178.795168697892
 21
230.3180231809514
 31
0.0
  0
LINE
  5
1A28
  8
MITTE
 10
140.09516869789169
 20
243.3180231809514
 30
0.0
 11
177.49516869789201
 21
243.3180231809514
 31
0.0
  0
LINE
  5
1A29
  8
BEM1
 10
142.29516869789171
 20
278.53588760111728
 30
0.0
 11
175.295168697892
 21
278.53588760111728
 31
0.0
  0
LINE
  5
1A2A
  8
BEM1
 10
138.79516869789171
 20
244.3180231809514
 30
0.0
 11
138.79516869789171
 21
279.55722364154042
 31
0.0
  0
SOLID
  5
1A2B
  8
BEM1
 10
142.29516869789171
 20
279.11922093445071
 30
0.0
 11
142.29516869789171
 21
277.95255426778402
 31
0.0
 12
138.79516869789171
 22
278.53588760111728
 32
0.0
 13
138.79516869789171
 23
278.53588760111728
 33
0.0
  0
LINE
  5
1A2D
  8
BEM1
 10
178.795168697892
 20
244.3180231809514
 30
0.0
 11
178.795168697892
 21
279.55722364154042
 31
0.0
  0
SOLID
  5
1A30
  8
BEM1
 10
175.295168697892
 20
279.11922093445071
 30
0.0
 11
175.295168697892
 21
277.95255426778402
 31
0.0
 12
178.795168697892
 22
278.53588760111728
 32
0.0
 13
178.795168697892
 23
278.53588760111728
 33
0.0
  0
LINE
  5
1A34
  8
025
 10
45.419683456129739
 20
234.81802318095151
 30
0.0
 11
47.73263888698397
 21
234.8180231809514
 31
0.0
  0
LINE
  5
1A45
  8
BEM1
 10
23.40398930275467
 20
250.31802318095129
 30
0.0
 11
23.40398930275467
 21
232.81802318095129
 31
0.0
  0
TEXT
  5
1A46
  8
BEM1
 62
     3
 10
21.552217729011261
 20
227.56802318095129
 30
0.0
 40
3.5
  1
3/8-32 UNEF-2A THD.
 50
90.0
 41
0.5
 51
15.0
 72
     1
 11
19.802217729011261
 21
243.31802318095129
 31
0.0
 73
     2
  0
LINE
  5
1A47
  8
BEM1
 10
32.994551654819418
 20
232.81802318095129
 30
0.0
 11
22.112842943409639
 21
232.81802318095129
 31
0.0
  0
SOLID
  5
1A48
  8
BEM1
 10
22.820655969421409
 20
236.31802318095129
 30
0.0
 11
23.987322636088042
 21
236.31802318095129
 31
0.0
 12
23.403989302754731
 22
232.81802318095129
 32
0.0
 13
23.403989302754731
 23
232.81802318095129
 33
0.0
  0
SOLID
  5
1A49
  8
BEM1
 10
22.820655969421299
 20
250.31802318095129
 30
0.0
 11
23.987322636087981
 21
250.31802318095129
 31
0.0
 12
23.40398930275467
 22
253.81802318095129
 32
0.0
 13
23.40398930275467
 23
253.81802318095129
 33
0.0
  0
LINE
  5
1A4A
  8
BEM1
 10
31.297517374696209
 20
253.81802318095129
 30
0.0
 11
22.112842943409639
 21
253.81802318095129
 31
0.0
  0
TEXT
  5
1A6C
  8
BEM1
 62
     3
 10
33.017830919237873
 20
271.38027812812493
 30
0.0
 40
3.5
  1
8.50
 41
0.7
 51
15.0
 72
     1
 11
36.488664252571198
 21
273.13027812812493
 31
0.0
 73
     2
  0
TEXT
  5
1A6D
  8
BEM1
 62
     4
 10
41.815299523770193
 20
271.53588906726412
 30
0.0
 40
3.0
  1
[.334"]
 41
0.7
 51
15.0
 72
     1
 11
47.065299523770193
 21
273.03588906726412
 31
0.0
 73
     2
  0
TEXT
  5
1A6E
  8
BEM1
 62
     3
 10
148.23536152085961
 20
280.28588760111728
 30
0.0
 40
3.5
  1
20.00
 41
0.7
 51
15.0
 72
     1
 11
152.52286152085961
 21
282.03588760111728
 31
0.0
 73
     2
  0
TEXT
  5
1A6F
  8
BEM1
 62
     4
 10
159.34246901224381
 20
280.25271748624141
 30
0.0
 40
3.0
  1
[.787"]
 41
0.7
 51
15.0
 72
     1
 11
164.59246901224381
 21
281.75271748624141
 31
0.0
 73
     2
  0
TEXT
  5
1A72
  8
BEM1
 62
     4
 10
133.2471280879094
 20
222.29469863464351
 30
0.0
 40
3.0
  1
[.590"]
 50
90.0
 41
0.7
 51
15.0
 72
     1
 11
131.7471280879094
 21
227.3696986346435
 31
0.0
 73
     2
  0
LINE
  5
1A92
  8
BEM1
 10
95.401125993253004
 20
227.3180231809514
 30
0.0
 11
114.1547076126262
 21
227.3180231809514
 31
0.0
  0
LINE
  5
1A93
  8
BEM1
 10
101.1467471627131
 20
257.91802318095142
 30
0.0
 11
114.1547076126262
 21
257.91802318095142
 31
0.0
  0
LINE
  5
1A94
  8
BEM1
 10
112.3547076126262
 20
256.81802318095151
 30
0.0
 11
112.3547076126262
 21
230.8180231809514
 31
0.0
  0
SOLID
  5
1A95
  8
BEM1
 10
111.7713742792928
 20
230.8180231809514
 30
0.0
 11
112.9380409459595
 21
230.8180231809514
 31
0.0
 12
112.3547076126262
 22
227.3180231809514
 32
0.0
 13
112.3547076126262
 23
227.3180231809514
 33
0.0
  0
SOLID
  5
1A96
  8
BEM1
 10
111.7713742792928
 20
254.41802318095139
 30
0.0
 11
112.9380409459595
 21
254.41802318095139
 31
0.0
 12
112.3547076126262
 22
257.91802318095142
 32
0.0
 13
112.3547076126262
 23
257.91802318095142
 33
0.0
  0
LINE
  5
1A97
  8
BEM1
 10
95.504741000570206
 20
257.91802318095142
 30
0.0
 11
98.294151743814837
 21
257.91802318095142
 31
0.0
  0
TEXT
  5
1A9A
  8
BEM1
 62
     4
 10
110.5025594275545
 20
243.34101952293619
 30
0.0
 40
3.0
  1
[.610"]
 50
90.0
 41
0.7
 51
15.0
 72
     1
 11
109.0025594275545
 21
248.06601952293619
 31
0.0
 73
     2
  0
TEXT
  5
1A9B
  8
BEM1
 62
     3
 10
110.6047076126262
 20
232.15054601928
 30
0.0
 40
3.5
  1
15.50
 50
90.0
 41
0.7
 51
15.0
 72
     1
 11
108.8547076126262
 21
236.43804601927999
 31
0.0
 73
     2
  0
LINE
  5
1AAE
  8
BEM1
 10
191.3010850370128
 20
256.81802318095151
 30
0.0
 11
191.3010850370128
 21
230.8180231809514
 31
0.0
  0
TEXT
  5
1AAF
  8
BEM1
 62
     3
 10
189.5510850370128
 20
233.5029989425517
 30
0.0
 40
3.5
  1
16.50
 50
90.0
 41
0.7
 51
15.0
 72
     1
 11
187.8010850370128
 21
237.79049894255169
 31
0.0
 73
     2
  0
LINE
  5
1AB0
  8
BEM1
 10
180.30725938935581
 20
227.3180231809514
 30
0.0
 11
192.29541281088331
 21
227.3180231809514
 31
0.0
  0
SOLID
  5
1AB1
  8
BEM1
 10
190.7177517036794
 20
230.8180231809514
 30
0.0
 11
191.88441837034611
 21
230.8180231809514
 31
0.0
 12
191.3010850370128
 22
227.3180231809514
 32
0.0
 13
191.3010850370128
 23
227.3180231809514
 33
0.0
  0
LINE
  5
1AB2
  8
BEM1
 10
180.2773253698908
 20
260.54200147812981
 30
0.0
 11
192.29541281088331
 21
260.54200147812981
 31
0.0
  0
TEXT
  5
1AB3
  8
BEM1
 62
     4
 10
189.4489368519412
 20
244.3434724462079
 30
0.0
 40
3.0
  1
[.650"]
 50
90.0
 41
0.7
 51
15.0
 72
     1
 11
187.9489368519412
 21
249.41847244620789
 31
0.0
 73
     2
  0
SOLID
  5
1AB4
  8
BEM1
 10
190.7177517036794
 20
257.04200147812981
 30
0.0
 11
191.88441837034611
 21
257.04200147812981
 31
0.0
 12
191.3010850370128
 22
260.54200147812981
 32
0.0
 13
191.3010850370128
 23
260.54200147812981
 33
0.0
  0
LINE
  5
1AB5
  8
BEM1
 10
162.00663660249461
 20
260.54200147812981
 30
0.0
 11
172.02288330740001
 21
260.54200147812981
 31
0.0
  0
LINE
  5
1BDA
  8
BEM1
 10
169.36659433702971
 20
89.475098049653397
 30
0.0
 11
169.36659433702971
 21
116.0666536779862
 31
0.0
  0
LINE
  5
1BDB
  8
BEM1
 10
146.56659433702961
 20
89.101522471812473
 30
0.0
 11
146.56659433702961
 21
116.0666536779862
 31
0.0
  0
CIRCLE
  5
1BDC
  8
05
 10
157.96659433702959
 20
83.152427080831501
 30
0.0
 40
11.4
  0
LINE
  5
1BDD
  8
MITTE
 10
143.00659433702961
 20
83.152427080831501
 30
0.0
 11
172.92659433702991
 21
83.152427080831501
 31
0.0
  0
LINE
  5
1BDE
  8
MITTE
 10
157.96659433702959
 20
97.760427080831505
 30
0.0
 11
157.96659433702959
 21
68.54442708083144
 31
0.0
  0
LINE
  5
1BDF
  8
BEM1
 10
146.5665943370297
 20
114.2666536779862
 30
0.0
 11
169.36659433702971
 21
114.2666536779862
 31
0.0
  0
SOLID
  5
1BE0
  8
BEM1
 10
165.86659433702971
 20
114.8499870113196
 30
0.0
 11
165.86659433702971
 21
113.6833203446529
 31
0.0
 12
169.36659433702971
 22
114.2666536779862
 32
0.0
 13
169.36659433702971
 23
114.2666536779862
 33
0.0
  0
SOLID
  5
1BE1
  8
BEM1
 10
150.06659433702961
 20
114.8499870113196
 30
0.0
 11
150.06659433702961
 21
113.6833203446529
 31
0.0
 12
146.56659433702961
 22
114.2666536779862
 32
0.0
 13
146.56659433702961
 23
114.2666536779862
 33
0.0
  0
TEXT
  5
1BE2
  8
BEM1
 62
     4
 10
152.61623240491539
 20
109.6521850411513
 30
0.0
 40
3.0
  1
[.450"]
 41
0.65
 51
15.0
 72
     1
 11
157.3287324049154
 21
111.1521850411513
 31
0.0
 73
     2
  0
TEXT
  5
1BE3
  8
BEM1
 62
     3
 10
152.86242767036291
 20
116.0166536779863
 30
0.0
 40
3.5
  1
%%c11.40
 41
0.7
 51
15.0
 72
     1
 11
157.96659433702959
 21
117.7666536779862
 31
0.0
 73
     2
  0
SOLID
  5
1C37
  8
BEM1
 10
75.300284795387654
 20
103.7401721916753
 30
0.0
 11
76.258283490235158
 21
103.07432715581371
 31
0.0
 12
73.781749035226539
 22
100.533253589202
 32
0.0
 13
73.781749035226539
 23
100.533253589202
 33
0.0
  0
LINE
  5
1C38
  8
MITTE
 10
72.753274017652913
 20
102.2524270808314
 30
0.0
 11
72.753274017652913
 21
97.052427080831393
 31
0.0
  0
LINE
  5
1C39
  8
MITTE
 10
59.85327401765295
 20
102.2524270808314
 30
0.0
 11
59.85327401765295
 21
97.052427080831393
 31
0.0
  0
LINE
  5
1C3A
  8
MITTE
 10
46.953274017652973
 20
102.2524270808315
 30
0.0
 11
46.953274017652973
 21
97.052427080831464
 31
0.0
  0
LINE
  5
1C3B
  8
BEM1
 10
73.673388026378632
 20
100.37078986913831
 30
0.0
 11
83.313071314902288
 21
114.2666536779862
 31
0.0
  0
LINE
  5
1C3C
  8
035
  6
PUNKT
 10
38.953274017652973
 20
63.152427080831501
 30
0.0
 11
38.953274017652973
 21
103.1524270808315
 31
0.0
  0
LINE
  5
1C3D
  8
035
  6
PUNKT
 10
83.853274017653064
 20
63.152427080831501
 30
0.0
 11
83.853274017653064
 21
103.1524270808315
 31
0.0
  0
LINE
  5
1C3E
  8
MITTE
 10
91.235942002488969
 20
83.152427080831501
 30
0.0
 11
20.391759239902459
 21
83.152427080831501
 31
0.0
  0
LINE
  5
1C3F
  8
035
  6
PUNKT
 10
83.853274017653064
 20
63.152427080831387
 30
0.0
 11
38.953274017652973
 21
63.152427080831387
 31
0.0
  0
POLYLINE
  5
1C40
  8
035
  6
PUNKT
 66
     1
 10
0.0
 20
0.0
 30
0.0
  0
VERTEX
  5
104D4
  8
035
  6
PUNKT
 10
38.953274017652973
 20
72.652427080831387
 30
0.0
  0
VERTEX
  5
104D5
  8
035
  6
PUNKT
 10
23.953274017652969
 20
72.652427080831387
 30
0.0
  0
VERTEX
  5
104D6
  8
035
  6
PUNKT
 10
21.953274017652969
 20
74.652427080831373
 30
0.0
  0
VERTEX
  5
104D7
  8
035
  6
PUNKT
 10
21.953274017652969
 20
91.652427080831387
 30
0.0
  0
VERTEX
  5
104D8
  8
035
  6
PUNKT
 10
23.953274017652969
 20
93.652427080831387
 30
0.0
  0
VERTEX
  5
104D9
  8
035
  6
PUNKT
 10
38.953274017652973
 20
93.652427080831387
 30
0.0
  0
SEQEND
  5
104DA
  8
035
  6
PUNKT
  0
LINE
  5
1C48
  8
MITTE
 10
46.953274017652973
 20
69.252427080831453
 30
0.0
 11
46.953274017652973
 21
64.052427080831393
 31
0.0
  0
CIRCLE
  5
1C49
  8
05
 10
46.953274017652909
 20
66.652427080831487
 30
0.0
 40
1.3
  0
LINE
  5
1C4A
  8
MITTE
 10
59.85327401765295
 20
69.252427080831453
 30
0.0
 11
59.85327401765295
 21
64.052427080831393
 31
0.0
  0
CIRCLE
  5
1C4B
  8
05
 10
59.853274017652893
 20
66.652427080831487
 30
0.0
 40
1.3
  0
LINE
  5
1C4C
  8
MITTE
 10
44.353274017652893
 20
66.652427080831487
 30
0.0
 11
49.553274017652939
 21
66.652427080831487
 31
0.0
  0
LINE
  5
1C4D
  8
MITTE
 10
57.25327401765287
 20
66.652427080831487
 30
0.0
 11
62.453274017652909
 21
66.652427080831487
 31
0.0
  0
CIRCLE
  5
1C4E
  8
05
 10
46.953274017652909
 20
99.652427080831487
 30
0.0
 40
1.3
  0
LINE
  5
1C4F
  8
MITTE
 10
44.353274017652893
 20
99.652427080831544
 30
0.0
 11
49.553274017652939
 21
99.652427080831544
 31
0.0
  0
CIRCLE
  5
1C50
  8
05
 10
59.853274017652893
 20
99.652427080831487
 30
0.0
 40
1.3
  0
LINE
  5
1C51
  8
MITTE
 10
57.25327401765287
 20
99.652427080831487
 30
0.0
 11
62.453274017652909
 21
99.652427080831487
 31
0.0
  0
TEXT
  5
1C52
  8
BEM1
 62
     4
 10
107.8163687364187
 20
78.168425904267906
 30
0.0
 40
3.0
  1
[.650"]
 50
90.0
 41
0.65
 51
15.0
 72
     1
 11
106.3163687364188
 21
82.880925904267897
 31
0.0
 73
     2
  0
TEXT
  5
1C53
  8
BEM1
 62
     3
 10
101.2688238646562
 20
78.864927080831507
 30
0.0
 40
3.5
  1
16.50
 50
90.0
 41
0.7
 51
15.0
 72
     1
 11
99.518823864656255
 21
83.152427080831501
 31
0.0
 73
     2
  0
LINE
  5
1C54
  8
BEM1
 10
103.0188238646562
 20
95.952427080831484
 30
0.0
 11
103.0188238646562
 21
70.35242708083149
 31
0.0
  0
POLYLINE
  5
1C55
  8
035
  6
PUNKT
 66
     1
 10
0.0
 20
0.0
 30
0.0
  0
VERTEX
  5
104DB
  8
035
  6
PUNKT
 10
83.853274017653064
 20
73.952427080831569
 30
0.0
  0
VERTEX
  5
104DC
  8
035
  6
PUNKT
 10
89.453274017652973
 20
73.952427080831569
 30
0.0
  0
VERTEX
  5
104DD
  8
035
  6
PUNKT
 10
89.453274017653087
 20
92.352427080831433
 30
0.0
  0
VERTEX
  5
104DE
  8
035
  6
PUNKT
 10
83.853274017653064
 20
92.352427080831433
 30
0.0
  0
SEQEND
  5
104DF
  8
035
  6
PUNKT
  0
LINE
  5
1C5B
  8
BEM1
 10
78.099863884971001
 20
66.652427080831487
 30
0.0
 11
104.8188238646563
 21
66.652427080831487
 31
0.0
  0
LINE
  5
1C5C
  8
MITTE
 10
72.753274017652913
 20
69.252427080831453
 30
0.0
 11
72.753274017652913
 21
64.052427080831393
 31
0.0
  0
CIRCLE
  5
1C5D
  8
05
 10
72.75327401765287
 20
66.652427080831487
 30
0.0
 40
1.3
  0
LINE
  5
1C5E
  8
MITTE
 10
70.153274017652848
 20
66.652427080831487
 30
0.0
 11
75.353274017652893
 21
66.652427080831487
 31
0.0
  0
SOLID
  5
1C5F
  8
BEM1
 10
102.435490531323
 20
70.152427080831487
 30
0.0
 11
103.6021571979896
 21
70.152427080831487
 31
0.0
 12
103.0188238646562
 22
66.652427080831487
 32
0.0
 13
103.0188238646562
 23
66.652427080831487
 33
0.0
  0
LINE
  5
1C60
  8
BEM1
 10
78.099863884971001
 20
99.652427080831487
 30
0.0
 11
104.8188238646563
 21
99.652427080831487
 31
0.0
  0
LINE
  5
1C61
  8
MITTE
 10
70.153274017652848
 20
99.652427080831487
 30
0.0
 11
75.353274017652893
 21
99.652427080831487
 31
0.0
  0
CIRCLE
  5
1C62
  8
05
 10
72.75327401765287
 20
99.652427080831487
 30
0.0
 40
1.3
  0
SOLID
  5
1C63
  8
BEM1
 10
102.435490531323
 20
96.152427080831487
 30
0.0
 11
103.6021571979896
 21
96.152427080831487
 31
0.0
 12
103.0188238646562
 22
99.652427080831487
 32
0.0
 13
103.0188238646562
 23
99.652427080831487
 33
0.0
  0
TEXT
  5
1C64
  8
BEM1
 62
     4
 10
61.173669007568698
 20
109.6521850411513
 30
0.0
 40
3.0
  1
[.250"]
 41
0.65
 51
15.0
 72
     1
 11
65.886169007568697
 21
111.1521850411513
 31
0.0
 73
     2
  0
TEXT
  5
1C65
  8
BEM1
 62
     3
 10
62.628274017652942
 20
116.08733394399469
 30
0.0
 40
3.5
  1
6.35
 41
0.7
 51
15.0
 72
     1
 11
66.303274017652939
 21
117.83733394399469
 31
0.0
 73
     2
  0
LINE
  5
1C66
  8
035
  6
PUNKT
 10
83.853274017653064
 20
103.1524270808316
 30
0.0
 11
38.953274017652973
 21
103.1524270808316
 31
0.0
  0
LINE
  5
1C67
  8
BEM1
 10
72.753274017652913
 20
114.3595102069347
 30
0.0
 11
33.310284031409203
 21
114.3595102069347
 31
0.0
  0
TEXT
  5
1C68
  8
BEM1
 62
     3
 10
38.83847627692932
 20
116.1095102069347
 30
0.0
 40
3.5
  1
4.00
 41
0.7
 51
15.0
 72
     1
 11
42.105142943595972
 21
117.8595102069347
 31
0.0
 73
     2
  0
LINE
  5
1C69
  8
BEM1
 10
38.953274017652973
 20
104.1524270808316
 30
0.0
 11
38.953274017652973
 21
116.1595102069347
 31
0.0
  0
TEXT
  5
1C6A
  8
BEM1
 62
     4
 10
27.548393392443199
 20
109.6521850411513
 30
0.0
 40
3.0
  1
[.157"]
 41
0.65
 51
15.0
 72
     1
 11
32.098393392443199
 21
111.1521850411513
 31
0.0
 73
     2
  0
SOLID
  5
1C6B
  8
BEM1
 10
35.453274017652973
 20
114.942843540268
 30
0.0
 11
35.453274017652973
 21
113.7761768736013
 31
0.0
 12
38.953274017652973
 22
114.3595102069347
 32
0.0
 13
38.953274017652973
 23
114.3595102069347
 33
0.0
  0
LINE
  5
1C6C
  8
BEM1
 10
59.85327401765295
 20
102.7347215338345
 30
0.0
 11
59.85327401765295
 21
116.1595102069346
 31
0.0
  0
LINE
  5
1C6D
  8
BEM1
 10
46.953274017652973
 20
102.7347215338346
 30
0.0
 11
46.953274017652973
 21
116.1595102069347
 31
0.0
  0
TEXT
  5
1C6E
  8
BEM1
 62
     4
 10
48.358524200867379
 20
109.6521850411513
 30
0.0
 40
3.0
  1
[.250"]
 41
0.65
 51
15.0
 72
     1
 11
53.071024200867392
 21
111.1521850411513
 31
0.0
 73
     2
  0
TEXT
  5
1C6F
  8
BEM1
 62
     3
 10
49.728274017652971
 20
116.140808563044
 30
0.0
 40
3.5
  1
6.35
 41
0.7
 51
15.0
 72
     1
 11
53.403274017652961
 21
117.890808563044
 31
0.0
 73
     2
  0
SOLID
  5
1C70
  8
BEM1
 10
56.35327401765295
 20
114.942843540268
 30
0.0
 11
56.35327401765295
 21
113.7761768736013
 31
0.0
 12
59.85327401765295
 22
114.3595102069347
 32
0.0
 13
59.85327401765295
 23
114.3595102069347
 33
0.0
  0
SOLID
  5
1C71
  8
BEM1
 10
50.453274017652973
 20
114.942843540268
 30
0.0
 11
50.453274017652973
 21
113.7761768736013
 31
0.0
 12
46.953274017652973
 22
114.3595102069347
 32
0.0
 13
46.953274017652973
 23
114.3595102069347
 33
0.0
  0
SOLID
  5
1C72
  8
BEM1
 10
63.35327401765295
 20
114.942843540268
 30
0.0
 11
63.35327401765295
 21
113.7761768736013
 31
0.0
 12
59.85327401765295
 22
114.3595102069347
 32
0.0
 13
59.85327401765295
 23
114.3595102069347
 33
0.0
  0
TEXT
  5
1C73
  8
BEM1
 62
     3
 10
84.231063379682439
 20
116.1151758138847
 30
0.0
 40
3.5
  1
6x %%c1.30
 41
0.7
 51
15.0
 11
84.231063379682439
 21
117.8651758138848
 31
0.0
 73
     2
  0
LINE
  5
1C74
  8
BEM1
 10
83.313071314902288
 20
114.2666536779862
 30
0.0
 11
99.929682045217533
 21
114.2666536779862
 31
0.0
  0
TEXT
  5
1C75
  8
BEM1
 62
     4
 10
83.573283559070518
 20
109.6521850411513
 30
0.0
 40
3.0
  1
[6x .0512"]
 41
0.65
 51
15.0
 72
     1
 11
91.860783559070512
 21
111.1521850411513
 31
0.0
 73
     2
  0
LINE
  5
1C76
  8
BEM1
 10
72.753274017652913
 20
102.7347215338345
 30
0.0
 11
72.753274017652913
 21
116.1595102069346
 31
0.0
  0
SOLID
  5
1C77
  8
BEM1
 10
69.253274017652927
 20
113.7761768736013
 30
0.0
 11
69.253274017652927
 21
114.942843540268
 31
0.0
 12
72.753274017652913
 22
114.3595102069347
 32
0.0
 13
72.753274017652913
 23
114.3595102069347
 33
0.0
  0
LINE
  5
1C7E
  8
BEM1
 10
147.91914699507009
 20
269.53588760111728
 30
0.0
 11
169.6711904007135
 21
269.53588760111728
 31
0.0
  0
TEXT
  5
1C7F
  8
BEM1
 62
     3
 10
154.30350203122509
 20
271.28588760111739
 30
0.0
 40
3.5
  1
SW15
 41
0.7
 51
15.0
 72
     1
 11
158.79516869789171
 21
273.03588760111728
 31
0.0
 73
     2
  0
LINE
  5
1C80
  8
BEM1
 10
144.41914699507009
 20
270.55045303074468
 30
0.0
 11
144.41914699507009
 21
254.11442010196541
 31
0.0
  0
LINE
  5
1C81
  8
BEM1
 10
173.1711904007135
 20
270.55045303074468
 30
0.0
 11
173.1711904007135
 21
253.7979318024631
 31
0.0
  0
SOLID
  5
1C82
  8
BEM1
 10
169.6711904007135
 20
270.11922093445071
 30
0.0
 11
169.6711904007135
 21
268.95255426778402
 31
0.0
 12
173.1711904007135
 22
269.53588760111728
 32
0.0
 13
173.1711904007135
 23
269.53588760111728
 33
0.0
  0
SOLID
  5
1C84
  8
BEM1
 10
147.91914699507009
 20
270.11922093445071
 30
0.0
 11
147.91914699507009
 21
268.95255426778402
 31
0.0
 12
144.41914699507009
 22
269.53588760111728
 32
0.0
 13
144.41914699507009
 23
269.53588760111728
 33
0.0
  0
LINE
  5
1C87
  8
BEM1
 10
174.01597708036499
 20
260.54200147812981
 30
0.0
 11
177.4737543334339
 21
260.54200147812981
 31
0.0
  0
POLYLINE
  5
2458
  8
035
 66
     1
 10
0.0
 20
0.0
 30
0.0
  0
VERTEX
  5
10556
  8
035
 10
141.99516869789181
 20
227.3180231809514
 30
0.0
  0
VERTEX
  5
10557
  8
035
 10
141.99516869789181
 20
213.15190864621789
 30
0.0
  0
SEQEND
  5
10558
  8
035
  0
POLYLINE
  5
245C
  8
035
 66
     1
 10
0.0
 20
0.0
 30
0.0
  0
VERTEX
  5
10559
  8
035
 10
142.79516869789171
 20
213.15190864621789
 30
0.0
  0
VERTEX
  5
1055A
  8
035
 10
142.79516869789171
 20
227.3180231809514
 30
0.0
  0
SEQEND
  5
1055B
  8
035
  0
POLYLINE
  5
2460
  8
035
 66
     1
 10
0.0
 20
0.0
 30
0.0
  0
VERTEX
  5
1055C
  8
035
 10
173.99516869789181
 20
227.3180231809514
 30
0.0
  0
VERTEX
  5
1055D
  8
035
 10
173.99516869789181
 20
213.15190864621781
 30
0.0
  0
SEQEND
  5
1055E
  8
035
  0
POLYLINE
  5
2464
  8
035
 66
     1
 10
0.0
 20
0.0
 30
0.0
  0
VERTEX
  5
1055F
  8
035
 10
174.79516869789171
 20
213.15190864621781
 30
0.0
  0
VERTEX
  5
10560
  8
035
 10
174.79516869789171
 20
227.3180231809514
 30
0.0
  0
SEQEND
  5
10561
  8
035
  0
INSERT
  5
2499
  8
ASHADE
 62
     1
  2
AVE_RENDER
 10
216.10416706521451
 20
1.19551686252955
 30
0.0
1001
AVE_RENDER
1002
{
1070
     2
1000
Pref
1070
    40
1070
    20
1070
     1
1070
     0
1000

1070
    10
1070
     0
1070
    30
1040
1.0
1070
     1
1040
0.3
1040
0.7
1040
0.0
1040
10.0
1010
-1.0
1020
-1.0
1030
-1.0
1040
0.3
1070
    49
1002
}
  0
INSERT
  5
249A
  8
ASHADE
 62
     3
  2
AVE_RENDER
 10
216.10416706521451
 20
1.19551686252955
 30
0.0
1001
AVE_RENDER
1002
{
1070
     0
1000
Full Opt
1070
     0
1070
     1
1070
     1
1070
     1
1070
     0
1070
     0
1070
     0
1070
     1
1070
     1
1040
0.0001
1040
0.0001
1002
}
  0
INSERT
  5
249B
  8
ASHADE
 62
     4
  2
AVE_RENDER
 10
216.10416706521451
 20
1.19551686252955
 30
0.0
1001
AVE_RENDER
1002
{
1070
     0
1000
Quick Opt
1070
     0
1070
     1
1070
     1
1070
     1
1070
     1
1070
     0
1070
     1
1002
}
  0
INSERT
  5
249F
  8
05
  2
NT_1
 10
314.81350852455893
 20
149.03616825504531
 30
0.0
 41
32.616999881868431
 42
-6.863009327815802
 43
32.616999881868431
  0
POLYLINE
  5
3898
  8
025
 66
     1
 10
0.0
 20
0.0
 30
0.0
  0
VERTEX
  5
10562
  8
025
 10
141.9951686978919
 20
205.55802318095149
 30
0.0
  0
VERTEX
  5
10563
  8
025
 10
142.7951686978918
 20
205.55802318095149
 30
0.0
  0
SEQEND
  5
10564
  8
025
  0
POLYLINE
  5
4914
  8
035
 66
     1
 10
0.0
 20
0.0
 30
0.0
  0
VERTEX
  5
10565
  8
035
 10
142.7951686978918
 20
204.31802318095151
 30
0.0
  0
VERTEX
  5
10566
  8
035
 10
142.7951686978918
 20
206.48684128112339
 30
0.0
 42
-0.1514149044328364
  0
VERTEX
  5
10567
  8
035
 10
142.97045113541321
 20
207.05238609998341
 30
0.0
 42
0.3099355376904337
  0
VERTEX
  5
10568
  8
035
 10
142.97045113541299
 20
211.08366026191979
 30
0.0
 42
-0.1514149044328556
  0
VERTEX
  5
10569
  8
035
 10
142.7951686978918
 20
211.64920508078001
 30
0.0
  0
VERTEX
  5
1056A
  8
035
 10
142.7951686978918
 20
213.15190864621789
 30
0.0
  0
SEQEND
  5
1056B
  8
035
  0
POLYLINE
  5
4928
  8
035
 66
     1
 10
0.0
 20
0.0
 30
0.0
  0
VERTEX
  5
1056C
  8
035
 10
142.7951686978918
 20
206.48684128112339
 30
0.0
  0
VERTEX
  5
1056D
  8
035
 10
142.7951686978918
 20
204.31802318095151
 30
0.0
  0
VERTEX
  5
1056E
  8
035
 10
141.99516869789181
 20
204.31802318095151
 30
0.0
  0
VERTEX
  5
1056F
  8
035
 10
141.99516869789181
 20
206.48684128112339
 30
0.0
 42
-0.1514149044328284
  0
VERTEX
  5
10570
  8
035
 10
142.31067708543031
 20
207.50482195507129
 30
0.0
 42
0.309935537690411
  0
VERTEX
  5
10571
  8
035
 10
142.31067708543031
 20
210.63122440683159
 30
0.0
 42
-0.1514149044328281
  0
VERTEX
  5
10572
  8
035
 10
141.99516869789181
 20
211.6492050807795
 30
0.0
  0
VERTEX
  5
10573
  8
035
 10
141.99516869789181
 20
213.15190864621789
 30
0.0
  0
SEQEND
  5
10574
  8
035
  0
POLYLINE
  5
4933
  8
035
 66
     1
 10
0.0
 20
0.0
 30
0.0
  0
VERTEX
  5
10575
  8
035
 10
173.99516869789181
 20
206.48684128112339
 30
0.0
  0
VERTEX
  5
10576
  8
035
 10
173.99516869789181
 20
204.31802318095151
 30
0.0
  0
VERTEX
  5
10577
  8
035
 10
174.7951686978918
 20
204.31802318095151
 30
0.0
  0
VERTEX
  5
10578
  8
035
 10
174.7951686978918
 20
206.48684128112339
 30
0.0
 42
0.1514149044328284
  0
VERTEX
  5
10579
  8
035
 10
174.4796603103533
 20
207.50482195507129
 30
0.0
 42
-0.309935537690411
  0
VERTEX
  5
1057A
  8
035
 10
174.4796603103533
 20
210.63122440683159
 30
0.0
 42
0.1514149044328281
  0
VERTEX
  5
1057B
  8
035
 10
174.7951686978918
 20
211.6492050807795
 30
0.0
  0
VERTEX
  5
1057C
  8
035
 10
174.7951686978918
 20
213.15190864621781
 30
0.0
  0
SEQEND
  5
1057D
  8
035
  0
POLYLINE
  5
493D
  8
035
 66
     1
 10
0.0
 20
0.0
 30
0.0
  0
VERTEX
  5
1057E
  8
035
 10
173.99516869789181
 20
204.31802318095151
 30
0.0
  0
VERTEX
  5
1057F
  8
035
 10
173.99516869789181
 20
206.48684128112339
 30
0.0
 42
0.1514149044328364
  0
VERTEX
  5
10580
  8
035
 10
173.8198862603704
 20
207.05238609998341
 30
0.0
 42
-0.3099355376904337
  0
VERTEX
  5
10581
  8
035
 10
173.81988626037059
 20
211.08366026191979
 30
0.0
 42
0.1514149044328556
  0
VERTEX
  5
10582
  8
035
 10
173.99516869789181
 20
211.64920508078001
 30
0.0
  0
VERTEX
  5
10583
  8
035
 10
173.99516869789181
 20
213.15190864621781
 30
0.0
  0
SEQEND
  5
10584
  8
035
  0
POLYLINE
  5
4945
  8
025
 66
     1
 10
0.0
 20
0.0
 30
0.0
  0
VERTEX
  5
10585
  8
025
 10
174.79516869789171
 20
205.55802318095149
 30
0.0
  0
VERTEX
  5
10586
  8
025
 10
173.99516869789181
 20
205.55802318095149
 30
0.0
  0
SEQEND
  5
10587
  8
025
  0
INSERT
  5
498E
  8
ASHADE
 62
     1
  2
AVE_RENDER
 10
210.0
 20
0.0
 30
0.0
1001
AVE_RENDER
1002
{
1070
     2
1000
Pref
1070
    40
1070
    20
1070
     1
1070
     0
1000

1070
    10
1070
     0
1070
    30
1040
1.0
1070
     1
1040
0.3
1040
0.7
1040
0.0
1040
10.0
1010
-1.0
1020
-1.0
1030
-1.0
1040
0.3
1070
    49
1002
}
  0
INSERT
  5
498F
  8
ASHADE
 62
     3
  2
AVE_RENDER
 10
210.0
 20
0.0
 30
0.0
1001
AVE_RENDER
1002
{
1070
     0
1000
Full Opt
1070
     0
1070
     1
1070
     1
1070
     1
1070
     0
1070
     0
1070
     0
1070
     1
1070
     1
1040
0.0001
1040
0.0001
1002
}
  0
INSERT
  5
4990
  8
ASHADE
 62
     4
  2
AVE_RENDER
 10
210.0
 20
0.0
 30
0.0
1001
AVE_RENDER
1002
{
1070
     0
1000
Quick Opt
1070
     0
1070
     1
1070
     1
1070
     1
1070
     1
1070
     0
1070
     1
1002
}
  0
INSERT
  5
4994
  8
05
  2
NT_1
 10
308.70934145934439
 20
147.8406513925157
 30
0.0
 41
32.616999881868431
 42
-6.863009327815802
 43
32.616999881868431
  0
INSERT
  5
FEDC
  8
ASHADE
 62
     1
  2
AVE_RENDER
 10
420.0
 20
0.0
 30
0.0
1001
AVE_RENDER
1002
{
1070
     2
1000
Pref
1070
    40
1070
    20
1070
     1
1070
     0
1000

1070
    10
1070
     0
1070
    30
1040
1.0
1070
     1
1040
0.3
1040
0.7
1040
0.0
1040
10.0
1010
-1.0
1020
-1.0
1030
-1.0
1040
0.3
1070
    49
1002
}
  0
INSERT
  5
FEDD
  8
ASHADE
 62
     3
  2
AVE_RENDER
 10
420.0
 20
0.0
 30
0.0
1001
AVE_RENDER
1002
{
1070
     0
1000
Full Opt
1070
     0
1070
     1
1070
     1
1070
     1
1070
     0
1070
     0
1070
     0
1070
     1
1070
     1
1040
0.0001
1040
0.0001
1002
}
  0
INSERT
  5
FEDE
  8
ASHADE
 62
     4
  2
AVE_RENDER
 10
420.0
 20
0.0
 30
0.0
1001
AVE_RENDER
1002
{
1070
     0
1000
Quick Opt
1070
     0
1070
     1
1070
     1
1070
     1
1070
     1
1070
     0
1070
     1
1002
}
  0
INSERT
  5
FEDF
  8
05
  2
NT_1
 10
518.70934145934427
 20
147.8406513925157
 30
0.0
 41
32.616999881868431
 42
-6.863009327815802
 43
32.616999881868431
  0
INSERT
  5
1011D
  8
ASHADE
 62
     1
  2
AVE_RENDER
 10
637.12916627957406
 20
0.1707880818172691
 30
0.0
1001
AVE_RENDER
1002
{
1070
     2
1000
Pref
1070
    40
1070
    20
1070
     1
1070
     0
1000

1070
    10
1070
     0
1070
    30
1040
1.0
1070
     1
1040
0.3
1040
0.7
1040
0.0
1040
10.0
1010
-1.0
1020
-1.0
1030
-1.0
1040
0.3
1070
    49
1002
}
  0
INSERT
  5
1011E
  8
ASHADE
 62
     3
  2
AVE_RENDER
 10
637.12916627957406
 20
0.1707880818172691
 30
0.0
1001
AVE_RENDER
1002
{
1070
     0
1000
Full Opt
1070
     0
1070
     1
1070
     1
1070
     1
1070
     0
1070
     0
1070
     0
1070
     1
1070
     1
1040
0.0001
1040
0.0001
1002
}
  0
INSERT
  5
1011F
  8
ASHADE
 62
     4
  2
AVE_RENDER
 10
637.12916627957406
 20
0.1707880818172691
 30
0.0
1001
AVE_RENDER
1002
{
1070
     0
1000
Quick Opt
1070
     0
1070
     1
1070
     1
1070
     1
1070
     1
1070
     0
1070
     1
1002
}
  0
INSERT
  5
10120
  8
05
  2
NT_1
 10
735.83850773891845
 20
148.011439474333
 30
0.0
 41
32.616999881868431
 42
-6.863009327815802
 43
32.616999881868431
  0
TEXT
  5
101A9
  8
035
 10
11.656371584426999
 20
130.74720324109489
 30
0.0
 40
3.0
  1
PCB-Layout (component side)
  7
ARIAL
  0
TEXT
  5
101AA
  8
035
 10
11.656371584426999
 20
136.74720324109489
 30
0.0
 40
3.5
  1
Print-Bohrplan (Best³ckungsseite)
  7
ARIAL
  0
TEXT
  5
101AB
  8
0
 62
     3
 10
114.9339502815107
 20
130.20590039351981
 30
0.0
 40
3.5
  1
Panel cut out (rear side)
 41
0.7
 51
15.0
  0
TEXT
  5
101AC
  8
035
 10
114.9339502815107
 20
137.20590039351981
 30
0.0
 40
3.5
  1
Frontplattenausschnitt (R³ckseite)
  7
ARIAL
  0
LINE
  5
10246
  8
025
 62
     5
 10
60.190922417024339
 20
207.0197179542707
 30
0.0
 11
60.358891880180053
 21
207.0197179542707
 31
0.0
  0
LINE
  5
10248
  8
025
 62
     5
 10
58.600344416528607
 20
211.1163284076321
 30
0.0
 11
58.02598341574911
 21
211.1163284076321
 31
0.0
  0
LINE
  5
1024A
  8
025
 62
     5
 10
57.950833889090958
 20
207.0197179542707
 30
0.0
 11
58.116176600548769
 21
207.0197179542707
 31
0.0
  0
LINE
  5
1024B
  8
035
 10
57.782638886983797
 20
213.1180231809513
 30
0.0
 11
57.782638886983797
 21
205.55802318095141
 31
0.0
  0
LINE
  5
1024C
  8
025
 62
     5
 10
60.10647577847724
 20
211.1163284076321
 30
0.0
 11
59.018546042710213
 21
211.1163284076321
 31
0.0
  0
LINE
  5
1024D
  8
025
 62
     5
 10
59.67375249014286
 20
207.0197179542707
 30
0.0
 11
58.448182855111646
 21
207.0197179542707
 31
0.0
  0
ARC
  5
1024E
  8
035
 10
59.082638886983872
 20
205.6180231809515
 30
0.0
 40
1.2999999999999969
 50
180.0
 51
0.0
  0
LINE
  5
10284
  8
035
 10
60.382638886983827
 20
205.55802318095141
 30
0.0
 11
60.38263888698382
 21
213.11802318095141
 31
0.0
  0
LINE
  5
10287
  8
035
 10
53.832638886984
 20
227.3180231809514
 30
0.0
 11
53.832638886984
 21
213.3180231809514
 31
0.0
  0
LINE
  5
10288
  8
035
 10
53.832638886984
 20
213.3180231809514
 30
0.0
 11
57.582638886983801
 21
213.3180231809514
 31
0.0
  0
LINE
  5
1028D
  8
035
 10
60.582638886983823
 20
213.3180231809514
 30
0.0
 11
64.332638886984
 21
213.3180231809514
 31
0.0
  0
LINE
  5
1028E
  8
035
 10
64.332638886984
 20
213.3180231809514
 30
0.0
 11
64.332638886984
 21
227.31802318095129
 31
0.0
  0
LINE
  5
1028F
  8
035
 10
57.582638886983801
 20
213.3180231809514
 30
0.0
 11
57.782638886983797
 21
213.1180231809513
 31
0.0
  0
LINE
  5
10290
  8
035
 10
60.38263888698382
 20
213.11802318095141
 30
0.0
 11
60.582638886983823
 21
213.3180231809514
 31
0.0
  0
LINE
  5
10291
  8
035
 10
77.032638886984046
 20
213.3180231809514
 30
0.0
 11
77.032638886984046
 21
227.31802318095129
 31
0.0
  0
LINE
  5
10292
  8
035
 10
66.532638886984046
 20
227.3180231809514
 30
0.0
 11
66.532638886984046
 21
213.3180231809514
 31
0.0
  0
LINE
  5
10293
  8
035
 10
73.282638886983875
 20
213.3180231809514
 30
0.0
 11
77.032638886984046
 21
213.3180231809514
 31
0.0
  0
LINE
  5
10294
  8
035
 10
73.082638886983872
 20
205.55802318095141
 30
0.0
 11
73.082638886983858
 21
213.11802318095141
 31
0.0
  0
LINE
  5
10295
  8
035
 10
70.48263888698385
 20
213.1180231809513
 30
0.0
 11
70.48263888698385
 21
205.55802318095141
 31
0.0
  0
ARC
  5
10296
  8
035
 10
71.782638886983918
 20
205.6180231809515
 30
0.0
 40
1.2999999999999969
 50
180.0
 51
0.0
  0
LINE
  5
10297
  8
025
 62
     5
 10
71.30034441652866
 20
211.1163284076321
 30
0.0
 11
70.725983415749155
 21
211.1163284076321
 31
0.0
  0
LINE
  5
10298
  8
025
 62
     5
 10
72.806475778477292
 20
211.1163284076321
 30
0.0
 11
71.718546042710244
 21
211.1163284076321
 31
0.0
  0
LINE
  5
10299
  8
025
 62
     5
 10
70.650833889091004
 20
207.0197179542707
 30
0.0
 11
70.816176600548815
 21
207.0197179542707
 31
0.0
  0
LINE
  5
1029A
  8
025
 62
     5
 10
72.373752490142905
 20
207.0197179542707
 30
0.0
 11
71.148182855111685
 21
207.0197179542707
 31
0.0
  0
LINE
  5
1029B
  8
025
 62
     5
 10
72.890922417024385
 20
207.0197179542707
 30
0.0
 11
73.058891880180099
 21
207.0197179542707
 31
0.0
  0
LINE
  5
1029C
  8
035
 10
66.532638886984046
 20
213.3180231809514
 30
0.0
 11
70.282638886983847
 21
213.3180231809514
 31
0.0
  0
LINE
  5
1029D
  8
035
 10
73.082638886983858
 20
213.11802318095141
 30
0.0
 11
73.282638886983875
 21
213.3180231809514
 31
0.0
  0
LINE
  5
1029E
  8
035
 10
70.282638886983847
 20
213.3180231809514
 30
0.0
 11
70.48263888698385
 21
213.1180231809513
 31
0.0
  0
LINE
  5
1029F
  8
035
 10
85.982638886983921
 20
213.31802318095151
 30
0.0
 11
89.732638886984105
 21
213.31802318095151
 31
0.0
  0
LINE
  5
102A0
  8
035
 10
79.232638886984091
 20
227.3180231809514
 30
0.0
 11
79.232638886984091
 21
213.31802318095151
 31
0.0
  0
LINE
  5
102A1
  8
035
 10
83.182638886983895
 20
213.11802318095141
 30
0.0
 11
83.182638886983895
 21
205.55802318095149
 31
0.0
  0
LINE
  5
102A2
  8
035
 10
85.782638886983918
 20
205.55802318095149
 30
0.0
 11
85.782638886983904
 21
213.1180231809515
 31
0.0
  0
ARC
  5
102A3
  8
035
 10
84.482638886983963
 20
205.6180231809515
 30
0.0
 40
1.2999999999999969
 50
180.0
 51
0.0
  0
LINE
  5
102A4
  8
035
 10
79.232638886984091
 20
213.31802318095151
 30
0.0
 11
82.982638886983892
 21
213.3180231809514
 31
0.0
  0
LINE
  5
102A5
  8
025
 62
     5
 10
85.073752490142951
 20
207.01971795427079
 30
0.0
 11
83.848182855111745
 21
207.01971795427079
 31
0.0
  0
LINE
  5
102A6
  8
025
 62
     5
 10
83.350833889091035
 20
207.01971795427079
 30
0.0
 11
83.51617660054886
 21
207.01971795427079
 31
0.0
  0
LINE
  5
102A7
  8
025
 62
     5
 10
85.506475778477324
 20
211.1163284076321
 30
0.0
 11
84.418546042710304
 21
211.1163284076321
 31
0.0
  0
LINE
  5
102A8
  8
025
 62
     5
 10
84.000344416528705
 20
211.1163284076321
 30
0.0
 11
83.425983415749201
 21
211.1163284076321
 31
0.0
  0
LINE
  5
102A9
  8
025
 62
     5
 10
85.590922417024416
 20
207.01971795427079
 30
0.0
 11
85.758891880180144
 21
207.01971795427079
 31
0.0
  0
LINE
  5
102AA
  8
035
 10
82.982638886983892
 20
213.3180231809514
 30
0.0
 11
83.182638886983895
 21
213.11802318095141
 31
0.0
  0
LINE
  5
102AB
  8
035
 10
85.782638886983904
 20
213.1180231809515
 30
0.0
 11
85.982638886983921
 21
213.31802318095151
 31
0.0
  0
LINE
  5
102AC
  8
035
 10
89.732638886984105
 20
213.31802318095151
 30
0.0
 11
89.732638886984105
 21
227.3180231809514
 31
0.0
  0
LINE
  5
102C1
  8
035
 10
53.832639378244842
 20
255.71802318095141
 30
0.0
 11
64.332639378244835
 21
255.71802318095141
 31
0.0
  0
LINE
  5
102C2
  8
035
 10
66.53263937824488
 20
255.71802318095141
 30
0.0
 11
77.03263937824488
 21
255.71802318095141
 31
0.0
  0
LINE
  5
102C3
  8
035
 10
79.232639378244926
 20
255.71802318095141
 30
0.0
 11
89.732639378244926
 21
255.71802318095141
 31
0.0
  0
LINE
  5
102C4
  8
035
 10
170.99621480362609
 20
255.1558644501016
 30
0.0
 11
173.29469622308949
 21
255.6701935944231
 31
0.0
  0
LINE
  5
102C5
  8
035
 10
171.62100404713661
 20
254.47588857697511
 30
0.0
 11
173.4693912160281
 21
254.8895005308942
 31
0.0
  0
POLYLINE
  5
102C6
  8
035
 66
     1
 10
0.0
 20
0.0
 30
0.0
  0
VERTEX
  5
105E1
  8
035
 10
175.836222115331
 20
253.02067938778359
 30
0.0
 42
0.1181822769953935
  0
VERTEX
  5
105E2
  8
035
 10
175.5265423366134
 20
254.56749983012901
 30
0.0
 42
0.3531951765162725
  0
VERTEX
  5
105E3
  8
035
 10
173.29469622308949
 20
255.6701935944231
 30
0.0
 42
0.3531951765162725
  0
SEQEND
  5
105E4
  8
035
  0
POLYLINE
  5
102C7
  8
035
 66
     1
 10
0.0
 20
0.0
 30
0.0
  0
VERTEX
  5
105E5
  8
035
 10
175.03679000492201
 20
253.05081741769521
 30
0.0
 42
0.1181822769953939
  0
VERTEX
  5
105E6
  8
035
 10
174.80032820081701
 20
254.2319211821648
 30
0.0
 42
0.3531951765162764
  0
VERTEX
  5
105E7
  8
035
 10
173.4693912160281
 20
254.8895005308942
 30
0.0
 42
0.3531951765162764
  0
SEQEND
  5
105E8
  8
035
  0
LINE
  5
102C8
  8
035
 10
175.5951691891548
 20
246.62658362052031
 30
0.0
 11
175.836222115331
 21
253.0206793877822
 31
0.0
  0
LINE
  5
102C9
  8
035
 10
174.87757982975859
 20
248.827657287405
 30
0.0
 11
175.03679000492201
 21
253.05081741769411
 31
0.0
  0
INSERT
  5
103A6
  8
035
 66
     1
  2
ZKOPF-REAN
 10
205.0
 20
4.9999998601448388
 30
0.0
  0
ATTRIB
  5
103A7
  8
0
 62
     4
 10
189.83333333333329
 20
41.99999986014484
 30
0.0
 40
2.5
  1
Battlogg
  7
SCRIPTS
 72
     1
 11
196.5
 21
41.99999986014484
 31
0.0
  2
NAME
 70
     0
  0
ATTRIB
  5
103A8
  8
0
 62
     4
 10
175.5416666666666
 20
41.99999986014484
 30
0.0
 40
2.5
  1
10.07.95
 41
0.7
 51
15.0
 72
     1
 11
180.5
 21
41.99999986014484
 31
0.0
  2
DATE
 70
     0
  0
ATTRIB
  5
103A9
  8
0
 62
     4
 10
124.5
 20
40.999999860144833
 30
0.0
 40
2.5
  1

 41
0.7
 51
15.0
 72
     1
 11
124.5
 21
40.999999860144833
 31
0.0
  2
WERKSTOFF
 70
     0
  0
ATTRIB
  5
103AA
  8
0
 62
     2
 10
101.9166666666666
 20
17.49999986014484
 30
0.0
 40
5.0
  1
NYS 218
 41
0.7
 51
15.0
 72
     1
 11
113.0
 21
17.49999986014484
 31
0.0
  2
BENENNUNG
 70
     0
  0
ATTRIB
  5
103AB
  8
0
 62
     3
 10
98.809543398121335
 20
26.082191310671782
 30
0.0
 40
3.5
  1
1/4" Phone Jack
 41
0.7
 51
15.0
 72
     1
 11
115.9595433981213
 21
26.082191310671782
 31
0.0
  2
TEIL
 70
     0
  0
ATTRIB
  5
103AC
  8
0
 62
     3
 10
169.74978091742361
 20
6.976540876682634
 30
0.0
 40
3.5
  1
3102 ST 22 03
 41
0.7
 51
15.0
 72
     1
 11
184.4497809174236
 21
6.976540876682634
 31
0.0
  2
NUMMER
 70
     0
  0
ATTRIB
  5
103AD
  8
0
 62
     2
 10
141.5173283625239
 20
39.656056093079371
 30
0.0
 40
5.0
  1
2:1
 41
0.7
 51
15.0
 72
     1
 11
144.4339950291905
 21
39.656056093079371
 31
0.0
  2
MASS
 70
     0
  0
ATTRIB
  5
103AE
  8
0
 62
     3
 10
144.51929905401991
 20
33.210450399320138
 30
0.0
 40
3.5
  1

 41
0.7
 51
15.0
 72
     1
 11
144.51929905401991
 21
33.210450399320138
 31
0.0
  2
MASS2
 70
     0
  0
ATTRIB
  5
103AF
  8
0
 62
     4
 10
124.0
 20
33.99999986014484
 30
0.0
 40
2.5
  1

 41
0.7
 51
15.0
 72
     1
 11
124.0
 21
33.99999986014484
 31
0.0
  2
TEIL
 70
     0
  0
ATTRIB
  5
103B0
  8
0
 62
     3
 10
97.288548059438142
 20
64.004318607574277
 30
0.0
 40
3.5
  1

 41
0.7
 51
15.0
  2
TOL
 70
     0
  0
ATTRIB
  5
103B1
  8
0
 62
     3
 10
97.288548059438142
 20
59.004318607574277
 30
0.0
 40
3.5
  1

 41
0.7
 51
15.0
  2
RADIEN
 70
     0
  0
ATTRIB
  5
103B2
  8
0
 62
     3
 10
97.288548059438142
 20
54.004318607574277
 30
0.0
 40
3.5
  1

 41
0.7
 51
15.0
  2
FACETTE
 70
     0
  0
ATTRIB
  5
103B3
  8
0
 62
     4
 10
7.8137327416173434
 20
11.99999986014484
 30
0.0
 40
2.5
  1
A
 41
0.7
 51
15.0
  2
INDEX1
 70
     0
  0
ATTRIB
  5
103B4
  8
0
 62
     4
 10
14.65125739644969
 20
11.99999986014484
 30
0.0
 40
2.5
  1
Tear Drop
 41
0.7
 51
15.0
  2
A1
 70
     0
  0
ATTRIB
  5
103B5
  8
0
 62
     4
 10
47.651257396449687
 20
11.99999986014484
 30
0.0
 40
2.5
  1
25.06..96
 41
0.7
 51
15.0
  2
DATUM1
 70
     0
  0
ATTRIB
  5
103B6
  8
0
 62
     4
 10
60.535009861932963
 20
11.99999986014484
 30
0.0
 40
2.5
  1
Batlog
 41
0.7
 51
15.0
  2
NAME1
 70
     0
  0
ATTRIB
  5
103B7
  8
0
 62
     4
 10
7.8137327416173434
 20
16.99999986014484
 30
0.0
 40
2.5
  1
B
 41
0.7
 51
15.0
  2
INDEX2
 70
     0
  0
ATTRIB
  5
103B8
  8
0
 62
     4
 10
14.65125739644969
 20
16.99999986014484
 30
0.0
 40
2.5
  1
33.0 %%P0.5 (33.5)
 41
0.7
 51
15.0
  2
A2
 70
     0
  0
ATTRIB
  5
103B9
  8
0
 62
     4
 10
47.651257396449687
 20
16.99999986014484
 30
0.0
 40
2.5
  1
14.06.07
 41
0.7
 51
15.0
  2
DATUM2
 70
     0
  0
ATTRIB
  5
103BA
  8
0
 62
     4
 10
60.535009861932963
 20
16.99999986014484
 30
0.0
 40
2.5
  1
Batlog
 41
0.7
 51
15.0
  2
NAME2
 70
     0
  0
ATTRIB
  5
103BB
  8
0
 62
     4
 10
7.8137327416173434
 20
21.99999986014484
 30
0.0
 40
2.5
  1

 41
0.7
 51
15.0
  2
INDEX3
 70
     0
  0
ATTRIB
  5
103BC
  8
0
 62
     4
 10
14.65125739644969
 20
21.99999986014484
 30
0.0
 40
2.5
  1

 41
0.7
 51
15.0
  2
A3
 70
     0
  0
ATTRIB
  5
103BD
  8
0
 62
     4
 10
47.651257396449687
 20
21.99999986014484
 30
0.0
 40
2.5
  1

 41
0.7
 51
15.0
  2
DATUM3
 70
     0
  0
ATTRIB
  5
103BE
  8
0
 62
     4
 10
60.535009861932963
 20
21.99999986014484
 30
0.0
 40
2.5
  1

 41
0.7
 51
15.0
  2
NAME3
 70
     0
  0
ATTRIB
  5
103BF
  8
0
 62
     4
 10
7.8137327416173434
 20
26.99999986014484
 30
0.0
 40
2.5
  1

 41
0.7
 51
15.0
  2
INDEX4
 70
     0
  0
ATTRIB
  5
103C0
  8
0
 62
     4
 10
14.65125739644969
 20
26.99999986014484
 30
0.0
 40
2.5
  1

 41
0.7
 51
15.0
  2
A4
 70
     0
  0
ATTRIB
  5
103C1
  8
0
 62
     4
 10
47.651257396449687
 20
26.99999986014484
 30
0.0
 40
2.5
  1

 41
0.7
 51
15.0
  2
DATUM4
 70
     0
  0
ATTRIB
  5
103C2
  8
0
 62
     4
 10
60.535009861932963
 20
26.99999986014484
 30
0.0
 40
2.5
  1

 41
0.7
 51
15.0
  2
NAME4
 70
     0
  0
ATTRIB
  5
103C3
  8
0
 62
     4
 10
7.8137327416173434
 20
31.99999986014484
 30
0.0
 40
2.5
  1

 41
0.7
 51
15.0
  2
INDEX5
 70
     0
  0
ATTRIB
  5
103C4
  8
0
 62
     4
 10
14.65125739644969
 20
31.99999986014484
 30
0.0
 40
2.5
  1

 41
0.7
 51
15.0
  2
A5
 70
     0
  0
ATTRIB
  5
103C5
  8
0
 62
     4
 10
47.651257396449687
 20
31.99999986014484
 30
0.0
 40
2.5
  1

 41
0.7
 51
15.0
  2
DATUM5
 70
     0
  0
ATTRIB
  5
103C6
  8
0
 62
     4
 10
60.535009861932963
 20
31.99999986014484
 30
0.0
 40
2.5
  1

 41
0.7
 51
15.0
  2
NAME5
 70
     0
  0
ATTRIB
  5
103C7
  8
0
 62
     4
 10
7.8137327416173434
 20
36.99999986014484
 30
0.0
 40
2.5
  1

 41
0.7
 51
15.0
  2
INDEX6
 70
     0
  0
ATTRIB
  5
103C8
  8
0
 62
     4
 10
14.65125739644969
 20
36.99999986014484
 30
0.0
 40
2.5
  1

 41
0.7
 51
15.0
  2
A6
 70
     0
  0
ATTRIB
  5
103C9
  8
0
 62
     4
 10
47.651257396449687
 20
36.99999986014484
 30
0.0
 40
2.5
  1

 41
0.7
 51
15.0
  2
DATUM6
 70
     0
  0
ATTRIB
  5
103CA
  8
0
 62
     4
 10
60.535009861932963
 20
36.99999986014484
 30
0.0
 40
2.5
  1

 41
0.7
 51
15.0
  2
NAME6
 70
     0
  0
ATTRIB
  5
103CB
  8
0
 62
     4
 10
7.8137327416173434
 20
41.99999986014484
 30
0.0
 40
2.5
  1

 41
0.7
 51
15.0
  2
INDEX7
 70
     0
  0
ATTRIB
  5
103CC
  8
0
 62
     4
 10
14.65125739644969
 20
41.99999986014484
 30
0.0
 40
2.5
  1

 41
0.7
 51
15.0
  2
A7
 70
     0
  0
ATTRIB
  5
103CD
  8
0
 62
     4
 10
47.651257396449687
 20
41.99999986014484
 30
0.0
 40
2.5
  1

 41
0.7
 51
15.0
  2
DATUM7
 70
     0
  0
ATTRIB
  5
103CE
  8
0
 62
     4
 10
60.535009861932963
 20
41.99999986014484
 30
0.0
 40
2.5
  1

 41
0.7
 51
15.0
  2
NAME7
 70
     0
  0
ATTRIB
  5
103CF
  8
0
 62
     4
 10
7.8137327416173434
 20
46.99999986014484
 30
0.0
 40
2.5
  1

 41
0.7
 51
15.0
  2
INDEX8
 70
     0
  0
ATTRIB
  5
103D0
  8
0
 62
     4
 10
14.65125739644969
 20
46.99999986014484
 30
0.0
 40
2.5
  1

 41
0.7
 51
15.0
  2
A8
 70
     0
  0
ATTRIB
  5
103D1
  8
0
 62
     4
 10
47.651257396449687
 20
46.99999986014484
 30
0.0
 40
2.5
  1

 41
0.7
 51
15.0
  2
DATUM8
 70
     0
  0
ATTRIB
  5
103D2
  8
0
 62
     4
 10
60.535009861932963
 20
46.99999986014484
 30
0.0
 40
2.5
  1

 41
0.7
 51
15.0
  2
NAME8
 70
     0
  0
SEQEND
  5
103D3
  8
035
  0
TEXT
  5
103F2
  8
BEM1
 62
     3
 10
53.340201432030362
 20
279.43879278987981
 30
0.0
 40
3.5
  1
33.00
 41
0.7
 51
15.0
 72
     1
 11
57.831868098697029
 21
281.18879278987981
 31
0.0
 73
     2
  0
TEXT
  5
103F3
  8
BEM1
 62
     4
 10
64.356983545903105
 20
279.50562267500391
 30
0.0
 40
3.0
  1
[1.300"]
 41
0.7
 51
15.0
 72
     1
 11
69.956983545903086
 21
281.00562267500391
 31
0.0
 73
     2
  0
TEXT
  5
103F4
  8
BEM1
 62
     4
 10
77.338941153755371
 20
279.75562267500391
 30
0.0
 40
2.5
  1
%%P0.5
 41
0.7
 51
15.0
 72
     1
 11
79.818107820422043
 21
281.00562267500391
 31
0.0
 73
     2
  0
ENDSEC
  0
EOF
