ISO-10303-21;
HEADER;
FILE_DESCRIPTION((''),'2;1');
FILE_NAME('PRT0082','2021-03-17T',('zyj'),(''),
'PRO/ENGINEER BY PARAMETRIC TECHNOLOGY CORPORATION, 2013040',
'PRO/ENGINEER BY PARAMETRIC TECHNOLOGY CORPORATION, 2013040','');
FILE_SCHEMA(('CONFIG_CONTROL_DESIGN','SHAPE_APPEARANCE_LAYERS_GROUPS'));
ENDSEC;
DATA;
#13=CARTESIAN_POINT('',(0.E0,2.197463537989E2,0.E0));
#14=DIRECTION('',(0.E0,-1.E0,0.E0));
#15=DIRECTION('',(1.E0,0.E0,0.E0));
#16=AXIS2_PLACEMENT_3D('',#13,#14,#15);
#18=DIRECTION('',(0.E0,-1.E0,0.E0));
#19=VECTOR('',#18,2.E0);
#20=CARTESIAN_POINT('',(1.8E0,2.197463537989E2,0.E0));
#21=LINE('',#20,#19);
#22=DIRECTION('',(0.E0,-1.E0,0.E0));
#23=VECTOR('',#22,2.E0);
#24=CARTESIAN_POINT('',(-1.8E0,2.197463537989E2,0.E0));
#25=LINE('',#24,#23);
#26=CARTESIAN_POINT('',(0.E0,2.197463537989E2,0.E0));
#27=DIRECTION('',(0.E0,1.E0,0.E0));
#28=DIRECTION('',(1.E0,0.E0,0.E0));
#29=AXIS2_PLACEMENT_3D('',#26,#27,#28);
#31=CARTESIAN_POINT('',(0.E0,2.177463537989E2,0.E0));
#32=DIRECTION('',(0.E0,1.E0,0.E0));
#33=DIRECTION('',(1.E0,0.E0,0.E0));
#34=AXIS2_PLACEMENT_3D('',#31,#32,#33);
#36=CARTESIAN_POINT('',(0.E0,2.177463537989E2,0.E0));
#37=DIRECTION('',(0.E0,-1.E0,0.E0));
#38=DIRECTION('',(1.E0,0.E0,0.E0));
#39=AXIS2_PLACEMENT_3D('',#36,#37,#38);
#41=CARTESIAN_POINT('',(0.E0,2.177463537989E2,0.E0));
#42=DIRECTION('',(0.E0,-1.E0,0.E0));
#43=DIRECTION('',(1.E0,0.E0,0.E0));
#44=AXIS2_PLACEMENT_3D('',#41,#42,#43);
#46=DIRECTION('',(0.E0,-1.E0,0.E0));
#47=VECTOR('',#46,3.31E1);
#48=CARTESIAN_POINT('',(3.75E0,2.177463537989E2,0.E0));
#49=LINE('',#48,#47);
#50=DIRECTION('',(0.E0,-1.E0,0.E0));
#51=VECTOR('',#50,3.31E1);
#52=CARTESIAN_POINT('',(-3.75E0,2.177463537989E2,0.E0));
#53=LINE('',#52,#51);
#54=CARTESIAN_POINT('',(0.E0,2.177463537989E2,0.E0));
#55=DIRECTION('',(0.E0,1.E0,0.E0));
#56=DIRECTION('',(1.E0,0.E0,0.E0));
#57=AXIS2_PLACEMENT_3D('',#54,#55,#56);
#59=CARTESIAN_POINT('',(0.E0,1.846463537989E2,0.E0));
#60=DIRECTION('',(0.E0,1.E0,0.E0));
#61=DIRECTION('',(1.E0,0.E0,0.E0));
#62=AXIS2_PLACEMENT_3D('',#59,#60,#61);
#64=CARTESIAN_POINT('',(0.E0,1.846463537989E2,0.E0));
#65=DIRECTION('',(0.E0,-1.E0,0.E0));
#66=DIRECTION('',(1.E0,0.E0,0.E0));
#67=AXIS2_PLACEMENT_3D('',#64,#65,#66);
#69=CARTESIAN_POINT('',(0.E0,1.846463537989E2,0.E0));
#70=DIRECTION('',(0.E0,-1.E0,0.E0));
#71=DIRECTION('',(0.E0,0.E0,1.E0));
#72=AXIS2_PLACEMENT_3D('',#69,#70,#71);
#74=CARTESIAN_POINT('',(0.E0,1.846463537989E2,0.E0));
#75=DIRECTION('',(0.E0,-1.E0,0.E0));
#76=DIRECTION('',(0.E0,0.E0,-1.E0));
#77=AXIS2_PLACEMENT_3D('',#74,#75,#76);
#79=DIRECTION('',(0.E0,1.E0,0.E0));
#80=VECTOR('',#79,9.E-1);
#81=CARTESIAN_POINT('',(0.E0,1.837463537989E2,3.2E0));
#82=LINE('',#81,#80);
#83=DIRECTION('',(0.E0,1.E0,0.E0));
#84=VECTOR('',#83,9.E-1);
#85=CARTESIAN_POINT('',(0.E0,1.837463537989E2,-3.2E0));
#86=LINE('',#85,#84);
#87=CARTESIAN_POINT('',(0.E0,1.837463537989E2,0.E0));
#88=DIRECTION('',(0.E0,1.E0,0.E0));
#89=DIRECTION('',(1.E0,0.E0,0.E0));
#90=AXIS2_PLACEMENT_3D('',#87,#88,#89);
#92=CARTESIAN_POINT('',(0.E0,1.837463537989E2,0.E0));
#93=DIRECTION('',(0.E0,1.E0,0.E0));
#94=DIRECTION('',(-1.E0,0.E0,0.E0));
#95=AXIS2_PLACEMENT_3D('',#92,#93,#94);
#97=CARTESIAN_POINT('',(0.E0,1.837463537989E2,0.E0));
#98=DIRECTION('',(0.E0,-1.E0,0.E0));
#99=DIRECTION('',(0.E0,0.E0,1.E0));
#100=AXIS2_PLACEMENT_3D('',#97,#98,#99);
#102=CARTESIAN_POINT('',(0.E0,1.837463537989E2,0.E0));
#103=DIRECTION('',(0.E0,-1.E0,0.E0));
#104=DIRECTION('',(0.E0,0.E0,-1.E0));
#105=AXIS2_PLACEMENT_3D('',#102,#103,#104);
#107=CARTESIAN_POINT('',(4.35E0,1.840463537989E2,2.732106207937E-12));
#108=DIRECTION('',(6.280687775417E-13,0.E0,-1.E0));
#109=DIRECTION('',(1.E0,0.E0,6.280687775417E-13));
#110=AXIS2_PLACEMENT_3D('',#107,#108,#109);
#112=CARTESIAN_POINT('',(0.E0,2.192463537989E2,0.E0));
#113=DIRECTION('',(0.E0,-1.E0,0.E0));
#114=DIRECTION('',(-1.E0,0.E0,0.E0));
#115=AXIS2_PLACEMENT_3D('',#112,#113,#114);
#117=DIRECTION('',(0.E0,1.E0,0.E0));
#118=VECTOR('',#117,3.52E1);
#119=CARTESIAN_POINT('',(-4.65E0,1.840463537989E2,1.405920452379E-13));
#120=LINE('',#119,#118);
#121=CARTESIAN_POINT('',(0.E0,1.840463537989E2,0.E0));
#122=DIRECTION('',(0.E0,1.E0,0.E0));
#123=DIRECTION('',(1.E0,0.E0,0.E0));
#124=AXIS2_PLACEMENT_3D('',#121,#122,#123);
#126=DIRECTION('',(0.E0,1.E0,0.E0));
#127=VECTOR('',#126,3.52E1);
#128=CARTESIAN_POINT('',(4.65E0,1.840463537989E2,-1.407326757048E-13));
#129=LINE('',#128,#127);
#130=CARTESIAN_POINT('',(0.E0,2.192463537989E2,0.E0));
#131=DIRECTION('',(0.E0,-1.E0,0.E0));
#132=DIRECTION('',(-1.E0,0.E0,0.E0));
#133=AXIS2_PLACEMENT_3D('',#130,#131,#132);
#135=CARTESIAN_POINT('',(0.E0,2.192463537989E2,0.E0));
#136=DIRECTION('',(0.E0,-1.E0,0.E0));
#137=DIRECTION('',(1.E0,0.E0,0.E0));
#138=AXIS2_PLACEMENT_3D('',#135,#136,#137);
#140=CARTESIAN_POINT('',(0.E0,2.194463537989E2,0.E0));
#141=DIRECTION('',(0.E0,1.E0,0.E0));
#142=DIRECTION('',(1.E0,0.E0,0.E0));
#143=AXIS2_PLACEMENT_3D('',#140,#141,#142);
#145=DIRECTION('',(-3.368894041264E-9,-1.E0,1.426440369862E-9));
#146=VECTOR('',#145,2.000000006738E-1);
#147=CARTESIAN_POINT('',(-2.899999999326E0,2.194463537996E2,
-2.852884300810E-10));
#148=LINE('',#147,#146);
#149=DIRECTION('',(7.071067811866E-1,-7.071067811865E-1,-1.313937159013E-10));
#150=VECTOR('',#149,4.242640688981E-1);
#151=CARTESIAN_POINT('',(2.599999999195E0,2.197463537997E2,3.410346177593E-10));
#152=LINE('',#151,#150);
#153=CARTESIAN_POINT('',(0.E0,2.197463537989E2,0.E0));
#154=DIRECTION('',(0.E0,1.E0,0.E0));
#155=DIRECTION('',(1.E0,0.E0,0.E0));
#156=AXIS2_PLACEMENT_3D('',#153,#154,#155);
#158=CARTESIAN_POINT('',(0.E0,2.197463537989E2,0.E0));
#159=DIRECTION('',(0.E0,1.E0,0.E0));
#160=DIRECTION('',(-1.E0,0.E0,0.E0));
#161=AXIS2_PLACEMENT_3D('',#158,#159,#160);
#163=DIRECTION('',(-7.071067811866E-1,-7.071067811865E-1,1.313939138031E-10));
#164=VECTOR('',#163,4.242640688981E-1);
#165=CARTESIAN_POINT('',(-2.599999999195E0,2.197463537997E2,
-3.410341465795E-10));
#166=LINE('',#165,#164);
#167=CARTESIAN_POINT('',(0.E0,2.194463537989E2,0.E0));
#168=DIRECTION('',(0.E0,1.E0,0.E0));
#169=DIRECTION('',(-1.E0,0.E0,0.E0));
#170=AXIS2_PLACEMENT_3D('',#167,#168,#169);
#172=DIRECTION('',(3.368889600372E-9,-1.E0,-1.426443145574E-9));
#173=VECTOR('',#172,2.000000006738E-1);
#174=CARTESIAN_POINT('',(2.899999999326E0,2.194463537996E2,2.852889852234E-10));
#175=LINE('',#174,#173);
#176=CARTESIAN_POINT('',(0.E0,2.192463537989E2,0.E0));
#177=DIRECTION('',(0.E0,-1.E0,0.E0));
#178=DIRECTION('',(1.E0,0.E0,0.E0));
#179=AXIS2_PLACEMENT_3D('',#176,#177,#178);
#181=CARTESIAN_POINT('',(0.E0,1.840463537989E2,0.E0));
#182=DIRECTION('',(0.E0,1.E0,0.E0));
#183=DIRECTION('',(-1.E0,0.E0,0.E0));
#184=AXIS2_PLACEMENT_3D('',#181,#182,#183);
#186=CARTESIAN_POINT('',(-4.35E0,1.840463537989E2,-2.732085391255E-12));
#187=DIRECTION('',(-6.280670428183E-13,0.E0,1.E0));
#188=DIRECTION('',(-1.E0,0.E0,-6.280670428183E-13));
#189=AXIS2_PLACEMENT_3D('',#186,#187,#188);
#191=CARTESIAN_POINT('',(1.8E0,2.197463537989E2,0.E0));
#192=CARTESIAN_POINT('',(1.8E0,2.177463537989E2,0.E0));
#193=VERTEX_POINT('',#191);
#194=VERTEX_POINT('',#192);
#195=CARTESIAN_POINT('',(3.75E0,2.177463537989E2,0.E0));
#196=CARTESIAN_POINT('',(3.75E0,1.846463537989E2,0.E0));
#197=VERTEX_POINT('',#195);
#198=VERTEX_POINT('',#196);
#199=CARTESIAN_POINT('',(-1.8E0,2.197463537989E2,0.E0));
#200=CARTESIAN_POINT('',(-1.8E0,2.177463537989E2,0.E0));
#201=VERTEX_POINT('',#199);
#202=VERTEX_POINT('',#200);
#203=CARTESIAN_POINT('',(-3.75E0,2.177463537989E2,0.E0));
#204=CARTESIAN_POINT('',(-3.75E0,1.846463537989E2,0.E0));
#205=VERTEX_POINT('',#203);
#206=VERTEX_POINT('',#204);
#207=CARTESIAN_POINT('',(4.65E0,1.840463537989E2,0.E0));
#208=CARTESIAN_POINT('',(-4.65E0,1.840463537989E2,0.E0));
#209=VERTEX_POINT('',#207);
#210=VERTEX_POINT('',#208);
#211=CARTESIAN_POINT('',(4.35E0,1.837463537989E2,0.E0));
#212=CARTESIAN_POINT('',(-4.35E0,1.837463537989E2,0.E0));
#213=VERTEX_POINT('',#211);
#214=VERTEX_POINT('',#212);
#215=CARTESIAN_POINT('',(-2.9E0,2.192463537989E2,0.E0));
#216=CARTESIAN_POINT('',(2.9E0,2.192463537989E2,0.E0));
#217=VERTEX_POINT('',#215);
#218=VERTEX_POINT('',#216);
#219=CARTESIAN_POINT('',(4.65E0,2.192463537989E2,0.E0));
#220=CARTESIAN_POINT('',(-4.65E0,2.192463537989E2,0.E0));
#221=VERTEX_POINT('',#219);
#222=VERTEX_POINT('',#220);
#223=CARTESIAN_POINT('',(2.6E0,2.197463537989E2,0.E0));
#224=CARTESIAN_POINT('',(-2.6E0,2.197463537989E2,0.E0));
#225=VERTEX_POINT('',#223);
#226=VERTEX_POINT('',#224);
#227=CARTESIAN_POINT('',(2.9E0,2.194463537989E2,0.E0));
#228=CARTESIAN_POINT('',(-2.9E0,2.194463537989E2,0.E0));
#229=VERTEX_POINT('',#227);
#230=VERTEX_POINT('',#228);
#231=CARTESIAN_POINT('',(0.E0,1.846463537989E2,3.2E0));
#232=CARTESIAN_POINT('',(0.E0,1.846463537989E2,-3.2E0));
#233=VERTEX_POINT('',#231);
#234=VERTEX_POINT('',#232);
#235=CARTESIAN_POINT('',(0.E0,1.837463537989E2,3.2E0));
#236=CARTESIAN_POINT('',(0.E0,1.837463537989E2,-3.2E0));
#237=VERTEX_POINT('',#235);
#238=VERTEX_POINT('',#236);
#239=CARTESIAN_POINT('',(0.E0,2.215463537989E2,0.E0));
#240=DIRECTION('',(0.E0,-1.E0,0.E0));
#241=DIRECTION('',(-1.E0,0.E0,0.E0));
#242=AXIS2_PLACEMENT_3D('',#239,#240,#241);
#243=CYLINDRICAL_SURFACE('',#242,1.8E0);
#245=ORIENTED_EDGE('',*,*,#244,.F.);
#247=ORIENTED_EDGE('',*,*,#246,.T.);
#249=ORIENTED_EDGE('',*,*,#248,.T.);
#251=ORIENTED_EDGE('',*,*,#250,.F.);
#252=EDGE_LOOP('',(#245,#247,#249,#251));
#253=FACE_OUTER_BOUND('',#252,.F.);
#255=CARTESIAN_POINT('',(0.E0,2.215463537989E2,0.E0));
#256=DIRECTION('',(0.E0,-1.E0,0.E0));
#257=DIRECTION('',(-1.E0,0.E0,0.E0));
#258=AXIS2_PLACEMENT_3D('',#255,#256,#257);
#259=CYLINDRICAL_SURFACE('',#258,1.8E0);
#260=ORIENTED_EDGE('',*,*,#244,.T.);
#262=ORIENTED_EDGE('',*,*,#261,.T.);
#263=ORIENTED_EDGE('',*,*,#248,.F.);
#265=ORIENTED_EDGE('',*,*,#264,.F.);
#266=EDGE_LOOP('',(#260,#262,#263,#265));
#267=FACE_OUTER_BOUND('',#266,.F.);
#269=CARTESIAN_POINT('',(0.E0,2.177463537989E2,0.E0));
#270=DIRECTION('',(0.E0,-1.E0,0.E0));
#271=DIRECTION('',(-1.E0,0.E0,0.E0));
#272=AXIS2_PLACEMENT_3D('',#269,#270,#271);
#273=PLANE('',#272);
#275=ORIENTED_EDGE('',*,*,#274,.F.);
#277=ORIENTED_EDGE('',*,*,#276,.T.);
#278=EDGE_LOOP('',(#275,#277));
#279=FACE_OUTER_BOUND('',#278,.F.);
#280=ORIENTED_EDGE('',*,*,#261,.F.);
#281=ORIENTED_EDGE('',*,*,#250,.T.);
#282=EDGE_LOOP('',(#280,#281));
#283=FACE_BOUND('',#282,.F.);
#285=CARTESIAN_POINT('',(0.E0,2.215463537989E2,0.E0));
#286=DIRECTION('',(0.E0,-1.E0,0.E0));
#287=DIRECTION('',(-1.E0,0.E0,0.E0));
#288=AXIS2_PLACEMENT_3D('',#285,#286,#287);
#289=CYLINDRICAL_SURFACE('',#288,3.75E0);
#291=ORIENTED_EDGE('',*,*,#290,.F.);
#292=ORIENTED_EDGE('',*,*,#274,.T.);
#294=ORIENTED_EDGE('',*,*,#293,.T.);
#296=ORIENTED_EDGE('',*,*,#295,.F.);
#297=EDGE_LOOP('',(#291,#292,#294,#296));
#298=FACE_OUTER_BOUND('',#297,.F.);
#300=CARTESIAN_POINT('',(0.E0,2.215463537989E2,0.E0));
#301=DIRECTION('',(0.E0,-1.E0,0.E0));
#302=DIRECTION('',(-1.E0,0.E0,0.E0));
#303=AXIS2_PLACEMENT_3D('',#300,#301,#302);
#304=CYLINDRICAL_SURFACE('',#303,3.75E0);
#305=ORIENTED_EDGE('',*,*,#290,.T.);
#307=ORIENTED_EDGE('',*,*,#306,.T.);
#308=ORIENTED_EDGE('',*,*,#293,.F.);
#309=ORIENTED_EDGE('',*,*,#276,.F.);
#310=EDGE_LOOP('',(#305,#307,#308,#309));
#311=FACE_OUTER_BOUND('',#310,.F.);
#313=CARTESIAN_POINT('',(0.E0,1.846463537989E2,0.E0));
#314=DIRECTION('',(0.E0,-1.E0,0.E0));
#315=DIRECTION('',(-1.E0,0.E0,0.E0));
#316=AXIS2_PLACEMENT_3D('',#313,#314,#315);
#317=PLANE('',#316);
#318=ORIENTED_EDGE('',*,*,#306,.F.);
#319=ORIENTED_EDGE('',*,*,#295,.T.);
#320=EDGE_LOOP('',(#318,#319));
#321=FACE_OUTER_BOUND('',#320,.F.);
#323=ORIENTED_EDGE('',*,*,#322,.F.);
#325=ORIENTED_EDGE('',*,*,#324,.F.);
#326=EDGE_LOOP('',(#323,#325));
#327=FACE_BOUND('',#326,.F.);
#329=CARTESIAN_POINT('',(0.E0,1.837463537989E2,0.E0));
#330=DIRECTION('',(0.E0,-1.E0,0.E0));
#331=DIRECTION('',(0.E0,0.E0,1.E0));
#332=AXIS2_PLACEMENT_3D('',#329,#330,#331);
#333=CYLINDRICAL_SURFACE('',#332,3.2E0);
#334=ORIENTED_EDGE('',*,*,#322,.T.);
#336=ORIENTED_EDGE('',*,*,#335,.F.);
#338=ORIENTED_EDGE('',*,*,#337,.F.);
#340=ORIENTED_EDGE('',*,*,#339,.T.);
#341=EDGE_LOOP('',(#334,#336,#338,#340));
#342=FACE_OUTER_BOUND('',#341,.F.);
#344=CARTESIAN_POINT('',(0.E0,1.837463537989E2,0.E0));
#345=DIRECTION('',(0.E0,-1.E0,0.E0));
#346=DIRECTION('',(0.E0,0.E0,1.E0));
#347=AXIS2_PLACEMENT_3D('',#344,#345,#346);
#348=CYLINDRICAL_SURFACE('',#347,3.2E0);
#349=ORIENTED_EDGE('',*,*,#324,.T.);
#350=ORIENTED_EDGE('',*,*,#339,.F.);
#352=ORIENTED_EDGE('',*,*,#351,.F.);
#353=ORIENTED_EDGE('',*,*,#335,.T.);
#354=EDGE_LOOP('',(#349,#350,#352,#353));
#355=FACE_OUTER_BOUND('',#354,.F.);
#357=CARTESIAN_POINT('',(0.E0,1.837463537989E2,0.E0));
#358=DIRECTION('',(0.E0,-1.E0,0.E0));
#359=DIRECTION('',(-1.E0,0.E0,0.E0));
#360=AXIS2_PLACEMENT_3D('',#357,#358,#359);
#361=PLANE('',#360);
#363=ORIENTED_EDGE('',*,*,#362,.T.);
#365=ORIENTED_EDGE('',*,*,#364,.T.);
#366=EDGE_LOOP('',(#363,#365));
#367=FACE_OUTER_BOUND('',#366,.F.);
#368=ORIENTED_EDGE('',*,*,#337,.T.);
#369=ORIENTED_EDGE('',*,*,#351,.T.);
#370=EDGE_LOOP('',(#368,#369));
#371=FACE_BOUND('',#370,.F.);
#373=CARTESIAN_POINT('',(0.E0,1.840463537989E2,0.E0));
#374=DIRECTION('',(0.E0,-1.E0,0.E0));
#375=DIRECTION('',(9.999196444909E-1,0.E0,1.267693027817E-2));
#376=AXIS2_PLACEMENT_3D('',#373,#374,#375);
#377=TOROIDAL_SURFACE('',#376,4.35E0,3.E-1);
#379=ORIENTED_EDGE('',*,*,#378,.T.);
#381=ORIENTED_EDGE('',*,*,#380,.T.);
#382=ORIENTED_EDGE('',*,*,#362,.F.);
#384=ORIENTED_EDGE('',*,*,#383,.F.);
#385=EDGE_LOOP('',(#379,#381,#382,#384));
#386=FACE_OUTER_BOUND('',#385,.F.);
#388=CARTESIAN_POINT('',(0.E0,2.215463537989E2,0.E0));
#389=DIRECTION('',(0.E0,-1.E0,0.E0));
#390=DIRECTION('',(-1.E0,0.E0,0.E0));
#391=AXIS2_PLACEMENT_3D('',#388,#389,#390);
#392=CYLINDRICAL_SURFACE('',#391,4.65E0);
#394=ORIENTED_EDGE('',*,*,#393,.F.);
#396=ORIENTED_EDGE('',*,*,#395,.F.);
#397=ORIENTED_EDGE('',*,*,#378,.F.);
#399=ORIENTED_EDGE('',*,*,#398,.T.);
#400=EDGE_LOOP('',(#394,#396,#397,#399));
#401=FACE_OUTER_BOUND('',#400,.F.);
#403=CARTESIAN_POINT('',(0.E0,2.192463537989E2,0.E0));
#404=DIRECTION('',(0.E0,1.E0,0.E0));
#405=DIRECTION('',(-1.E0,0.E0,0.E0));
#406=AXIS2_PLACEMENT_3D('',#403,#404,#405);
#407=PLANE('',#406);
#409=ORIENTED_EDGE('',*,*,#408,.T.);
#410=ORIENTED_EDGE('',*,*,#393,.T.);
#411=EDGE_LOOP('',(#409,#410));
#412=FACE_OUTER_BOUND('',#411,.F.);
#414=ORIENTED_EDGE('',*,*,#413,.F.);
#416=ORIENTED_EDGE('',*,*,#415,.F.);
#417=EDGE_LOOP('',(#414,#416));
#418=FACE_BOUND('',#417,.F.);
#420=CARTESIAN_POINT('',(0.E0,2.197463537989E2,0.E0));
#421=DIRECTION('',(0.E0,1.E0,0.E0));
#422=DIRECTION('',(-1.E0,0.E0,0.E0));
#423=AXIS2_PLACEMENT_3D('',#420,#421,#422);
#424=CYLINDRICAL_SURFACE('',#423,2.9E0);
#426=ORIENTED_EDGE('',*,*,#425,.T.);
#428=ORIENTED_EDGE('',*,*,#427,.T.);
#429=ORIENTED_EDGE('',*,*,#413,.T.);
#431=ORIENTED_EDGE('',*,*,#430,.F.);
#432=EDGE_LOOP('',(#426,#428,#429,#431));
#433=FACE_OUTER_BOUND('',#432,.F.);
#435=CARTESIAN_POINT('',(0.E0,2.195963537996E2,0.E0));
#436=DIRECTION('',(0.E0,-1.E0,0.E0));
#437=DIRECTION('',(0.E0,0.E0,-1.E0));
#438=AXIS2_PLACEMENT_3D('',#435,#436,#437);
#439=CONICAL_SURFACE('',#438,2.749999999329E0,4.5E1);
#441=ORIENTED_EDGE('',*,*,#440,.T.);
#443=ORIENTED_EDGE('',*,*,#442,.T.);
#444=ORIENTED_EDGE('',*,*,#425,.F.);
#446=ORIENTED_EDGE('',*,*,#445,.F.);
#447=EDGE_LOOP('',(#441,#443,#444,#446));
#448=FACE_OUTER_BOUND('',#447,.F.);
#450=CARTESIAN_POINT('',(0.E0,2.197463537989E2,0.E0));
#451=DIRECTION('',(0.E0,-1.E0,0.E0));
#452=DIRECTION('',(-1.E0,0.E0,0.E0));
#453=AXIS2_PLACEMENT_3D('',#450,#451,#452);
#454=PLANE('',#453);
#455=ORIENTED_EDGE('',*,*,#440,.F.);
#457=ORIENTED_EDGE('',*,*,#456,.F.);
#458=EDGE_LOOP('',(#455,#457));
#459=FACE_OUTER_BOUND('',#458,.F.);
#460=ORIENTED_EDGE('',*,*,#246,.F.);
#461=ORIENTED_EDGE('',*,*,#264,.T.);
#462=EDGE_LOOP('',(#460,#461));
#463=FACE_BOUND('',#462,.F.);
#465=CARTESIAN_POINT('',(0.E0,2.195963537996E2,0.E0));
#466=DIRECTION('',(0.E0,-1.E0,0.E0));
#467=DIRECTION('',(0.E0,0.E0,-1.E0));
#468=AXIS2_PLACEMENT_3D('',#465,#466,#467);
#469=CONICAL_SURFACE('',#468,2.749999999329E0,4.5E1);
#470=ORIENTED_EDGE('',*,*,#456,.T.);
#471=ORIENTED_EDGE('',*,*,#445,.T.);
#473=ORIENTED_EDGE('',*,*,#472,.F.);
#474=ORIENTED_EDGE('',*,*,#442,.F.);
#475=EDGE_LOOP('',(#470,#471,#473,#474));
#476=FACE_OUTER_BOUND('',#475,.F.);
#478=CARTESIAN_POINT('',(0.E0,2.197463537989E2,0.E0));
#479=DIRECTION('',(0.E0,1.E0,0.E0));
#480=DIRECTION('',(-1.E0,0.E0,0.E0));
#481=AXIS2_PLACEMENT_3D('',#478,#479,#480);
#482=CYLINDRICAL_SURFACE('',#481,2.9E0);
#483=ORIENTED_EDGE('',*,*,#472,.T.);
#484=ORIENTED_EDGE('',*,*,#430,.T.);
#485=ORIENTED_EDGE('',*,*,#415,.T.);
#486=ORIENTED_EDGE('',*,*,#427,.F.);
#487=EDGE_LOOP('',(#483,#484,#485,#486));
#488=FACE_OUTER_BOUND('',#487,.F.);
#490=CARTESIAN_POINT('',(0.E0,2.215463537989E2,0.E0));
#491=DIRECTION('',(0.E0,-1.E0,0.E0));
#492=DIRECTION('',(-1.E0,0.E0,0.E0));
#493=AXIS2_PLACEMENT_3D('',#490,#491,#492);
#494=CYLINDRICAL_SURFACE('',#493,4.65E0);
#495=ORIENTED_EDGE('',*,*,#408,.F.);
#496=ORIENTED_EDGE('',*,*,#398,.F.);
#498=ORIENTED_EDGE('',*,*,#497,.F.);
#499=ORIENTED_EDGE('',*,*,#395,.T.);
#500=EDGE_LOOP('',(#495,#496,#498,#499));
#501=FACE_OUTER_BOUND('',#500,.F.);
#503=CARTESIAN_POINT('',(0.E0,1.840463537989E2,0.E0));
#504=DIRECTION('',(0.E0,-1.E0,0.E0));
#505=DIRECTION('',(-9.999196444909E-1,0.E0,-1.267693027817E-2));
#506=AXIS2_PLACEMENT_3D('',#503,#504,#505);
#507=TOROIDAL_SURFACE('',#506,4.35E0,3.E-1);
#508=ORIENTED_EDGE('',*,*,#497,.T.);
#509=ORIENTED_EDGE('',*,*,#383,.T.);
#510=ORIENTED_EDGE('',*,*,#364,.F.);
#511=ORIENTED_EDGE('',*,*,#380,.F.);
#512=EDGE_LOOP('',(#508,#509,#510,#511));
#513=FACE_OUTER_BOUND('',#512,.F.);
#515=CLOSED_SHELL('',(#254,#268,#284,#299,#312,#328,#343,#356,#372,#387,#402,
#419,#434,#449,#464,#477,#489,#502,#514));
#516=MANIFOLD_SOLID_BREP('',#515);
#518=DIMENSIONAL_EXPONENTS(0.E0,0.E0,0.E0,0.E0,0.E0,0.E0,0.E0);
#520=PLANE_ANGLE_MEASURE_WITH_UNIT(PLANE_ANGLE_MEASURE(1.745329251994E-2),#519);
#521=(CONVERSION_BASED_UNIT('DEGREE',#520)NAMED_UNIT(*)PLANE_ANGLE_UNIT());
#523=UNCERTAINTY_MEASURE_WITH_UNIT(LENGTH_MEASURE(3.987048181228E-3),#517,
'closure',
'Maximum model space distance between geometric entities at asserted connectivities');
#526=APPLICATION_CONTEXT(
'CONFIGURATION CONTROLLED 3D DESIGNS OF MECHANICAL PARTS AND ASSEMBLIES');
#527=APPLICATION_PROTOCOL_DEFINITION('international standard',
'config_control_design',1994,#526);
#528=DESIGN_CONTEXT('',#526,'design');
#529=MECHANICAL_CONTEXT('',#526,'mechanical');
#530=PRODUCT('PRT0082','PRT0082','NOT SPECIFIED',(#529));
#531=PRODUCT_DEFINITION_FORMATION_WITH_SPECIFIED_SOURCE('1','LAST_VERSION',#530,
.MADE.);
#535=PRODUCT_CATEGORY('part','');
#536=PRODUCT_RELATED_PRODUCT_CATEGORY('detail','',(#530));
#537=PRODUCT_CATEGORY_RELATIONSHIP('','',#535,#536);
#538=SECURITY_CLASSIFICATION_LEVEL('unclassified');
#539=SECURITY_CLASSIFICATION('','',#538);
#540=CC_DESIGN_SECURITY_CLASSIFICATION(#539,(#531));
#541=APPROVAL_STATUS('approved');
#542=APPROVAL(#541,'');
#543=CC_DESIGN_APPROVAL(#542,(#539,#531,#532));
#544=CALENDAR_DATE(121,17,3);
#545=COORDINATED_UNIVERSAL_TIME_OFFSET(8,0,.AHEAD.);
#546=LOCAL_TIME(14,13,1.2E1,#545);
#547=DATE_AND_TIME(#544,#546);
#548=APPROVAL_DATE_TIME(#547,#542);
#549=DATE_TIME_ROLE('creation_date');
#550=CC_DESIGN_DATE_AND_TIME_ASSIGNMENT(#547,#549,(#532));
#551=DATE_TIME_ROLE('classification_date');
#552=CC_DESIGN_DATE_AND_TIME_ASSIGNMENT(#547,#551,(#539));
#553=PERSON('UNSPECIFIED','UNSPECIFIED',$,$,$,$);
#554=ORGANIZATION('UNSPECIFIED','UNSPECIFIED','UNSPECIFIED');
#555=PERSON_AND_ORGANIZATION(#553,#554);
#556=APPROVAL_ROLE('approver');
#557=APPROVAL_PERSON_ORGANIZATION(#555,#542,#556);
#558=PERSON_AND_ORGANIZATION_ROLE('creator');
#559=CC_DESIGN_PERSON_AND_ORGANIZATION_ASSIGNMENT(#555,#558,(#531,#532));
#560=PERSON_AND_ORGANIZATION_ROLE('design_supplier');
#561=CC_DESIGN_PERSON_AND_ORGANIZATION_ASSIGNMENT(#555,#560,(#531));
#562=PERSON_AND_ORGANIZATION_ROLE('classification_officer');
#563=CC_DESIGN_PERSON_AND_ORGANIZATION_ASSIGNMENT(#555,#562,(#539));
#564=PERSON_AND_ORGANIZATION_ROLE('design_owner');
#565=CC_DESIGN_PERSON_AND_ORGANIZATION_ASSIGNMENT(#555,#564,(#530));
#1=DRAUGHTING_PRE_DEFINED_COLOUR('green');
#2=COLOUR_RGB('',1.1E-2,1.2E-2,1.E0);
#3=COLOUR_RGB('',1.1E-1,1.1E-1,1.1E-1);
#4=COLOUR_RGB('',3.92E-1,1.2E-2,1.2E-2);
#5=COLOUR_RGB('',4.1E-1,0.E0,2.2E-1);
#6=COLOUR_RGB('',8.784E-1,9.49E-1,1.E0);
#7=COLOUR_RGB('',9.6E-1,9.6E-1,9.6E-1);
#8=COLOUR_RGB('',9.8E-1,6.27E-1,0.E0);
#9=DRAUGHTING_PRE_DEFINED_COLOUR('red');
#10=DRAUGHTING_PRE_DEFINED_COLOUR('yellow');
#11=COLOUR_RGB('',1.E0,1.E0,9.49E-1);
#12=DRAUGHTING_PRE_DEFINED_COLOUR('white');
#17=CIRCLE('',#16,1.8E0);
#30=CIRCLE('',#29,1.8E0);
#35=CIRCLE('',#34,1.8E0);
#40=CIRCLE('',#39,1.8E0);
#45=CIRCLE('',#44,3.75E0);
#58=CIRCLE('',#57,3.75E0);
#63=CIRCLE('',#62,3.75E0);
#68=CIRCLE('',#67,3.75E0);
#73=CIRCLE('',#72,3.2E0);
#78=CIRCLE('',#77,3.2E0);
#91=CIRCLE('',#90,4.35E0);
#96=CIRCLE('',#95,4.35E0);
#101=CIRCLE('',#100,3.2E0);
#106=CIRCLE('',#105,3.2E0);
#111=CIRCLE('',#110,3.E-1);
#116=CIRCLE('',#115,4.65E0);
#125=CIRCLE('',#124,4.65E0);
#134=CIRCLE('',#133,2.9E0);
#139=CIRCLE('',#138,2.9E0);
#144=CIRCLE('',#143,2.9E0);
#157=CIRCLE('',#156,2.6E0);
#162=CIRCLE('',#161,2.6E0);
#171=CIRCLE('',#170,2.9E0);
#180=CIRCLE('',#179,4.65E0);
#185=CIRCLE('',#184,4.65E0);
#190=CIRCLE('',#189,3.E-1);
#244=EDGE_CURVE('',#193,#194,#21,.T.);
#246=EDGE_CURVE('',#193,#201,#17,.T.);
#248=EDGE_CURVE('',#201,#202,#25,.T.);
#250=EDGE_CURVE('',#194,#202,#40,.T.);
#254=ADVANCED_FACE('',(#253),#243,.F.);
#261=EDGE_CURVE('',#194,#202,#35,.T.);
#264=EDGE_CURVE('',#193,#201,#30,.T.);
#268=ADVANCED_FACE('',(#267),#259,.F.);
#274=EDGE_CURVE('',#197,#205,#45,.T.);
#276=EDGE_CURVE('',#197,#205,#58,.T.);
#284=ADVANCED_FACE('',(#279,#283),#273,.T.);
#290=EDGE_CURVE('',#197,#198,#49,.T.);
#293=EDGE_CURVE('',#205,#206,#53,.T.);
#295=EDGE_CURVE('',#198,#206,#68,.T.);
#299=ADVANCED_FACE('',(#298),#289,.F.);
#306=EDGE_CURVE('',#198,#206,#63,.T.);
#312=ADVANCED_FACE('',(#311),#304,.F.);
#322=EDGE_CURVE('',#233,#234,#73,.T.);
#324=EDGE_CURVE('',#234,#233,#78,.T.);
#328=ADVANCED_FACE('',(#321,#327),#317,.F.);
#335=EDGE_CURVE('',#238,#234,#86,.T.);
#337=EDGE_CURVE('',#237,#238,#101,.T.);
#339=EDGE_CURVE('',#237,#233,#82,.T.);
#343=ADVANCED_FACE('',(#342),#333,.F.);
#351=EDGE_CURVE('',#238,#237,#106,.T.);
#356=ADVANCED_FACE('',(#355),#348,.F.);
#362=EDGE_CURVE('',#213,#214,#91,.T.);
#364=EDGE_CURVE('',#214,#213,#96,.T.);
#372=ADVANCED_FACE('',(#367,#371),#361,.T.);
#378=EDGE_CURVE('',#209,#210,#125,.T.);
#380=EDGE_CURVE('',#210,#214,#190,.T.);
#383=EDGE_CURVE('',#209,#213,#111,.T.);
#387=ADVANCED_FACE('',(#386),#377,.T.);
#393=EDGE_CURVE('',#222,#221,#116,.T.);
#395=EDGE_CURVE('',#210,#222,#120,.T.);
#398=EDGE_CURVE('',#209,#221,#129,.T.);
#402=ADVANCED_FACE('',(#401),#392,.T.);
#408=EDGE_CURVE('',#221,#222,#180,.T.);
#413=EDGE_CURVE('',#217,#218,#134,.T.);
#415=EDGE_CURVE('',#218,#217,#139,.T.);
#419=ADVANCED_FACE('',(#412,#418),#407,.T.);
#425=EDGE_CURVE('',#229,#230,#144,.T.);
#427=EDGE_CURVE('',#230,#217,#148,.T.);
#430=EDGE_CURVE('',#229,#218,#175,.T.);
#434=ADVANCED_FACE('',(#433),#424,.T.);
#440=EDGE_CURVE('',#225,#226,#157,.T.);
#442=EDGE_CURVE('',#226,#230,#166,.T.);
#445=EDGE_CURVE('',#225,#229,#152,.T.);
#449=ADVANCED_FACE('',(#448),#439,.T.);
#456=EDGE_CURVE('',#226,#225,#162,.T.);
#464=ADVANCED_FACE('',(#459,#463),#454,.F.);
#472=EDGE_CURVE('',#230,#229,#171,.T.);
#477=ADVANCED_FACE('',(#476),#469,.T.);
#489=ADVANCED_FACE('',(#488),#482,.T.);
#497=EDGE_CURVE('',#210,#209,#185,.T.);
#502=ADVANCED_FACE('',(#501),#494,.T.);
#514=ADVANCED_FACE('',(#513),#507,.T.);
#517=(LENGTH_UNIT()NAMED_UNIT(*)SI_UNIT(.MILLI.,.METRE.));
#519=(NAMED_UNIT(*)PLANE_ANGLE_UNIT()SI_UNIT($,.RADIAN.));
#522=(NAMED_UNIT(*)SI_UNIT($,.STERADIAN.)SOLID_ANGLE_UNIT());
#524=(GEOMETRIC_REPRESENTATION_CONTEXT(3)GLOBAL_UNCERTAINTY_ASSIGNED_CONTEXT((
#523))GLOBAL_UNIT_ASSIGNED_CONTEXT((#517,#521,#522))REPRESENTATION_CONTEXT
('ID1','3'));
#525=ADVANCED_BREP_SHAPE_REPRESENTATION('',(#516),#524);
#532=PRODUCT_DEFINITION('design','',#531,#528);
#533=PRODUCT_DEFINITION_SHAPE('','SHAPE FOR PRT0082.',#532);
#534=SHAPE_DEFINITION_REPRESENTATION(#533,#525);
ENDSEC;
END-ISO-10303-21;
